Hymn 2

01234567891011121314151617181920212223
E
B
G
D
A
E
B
0 1 2 3 4 5 6 7 8 9 10 11 12 13 14 15 16 17 18 19 20 21 22 23
(/) Slide Up  (\) Slide Down  (h) Hammer On  (p) Pull Off  (b) Bend (r) Release (v) Vibrato

Capo Fret 1

Stave 1:

E|-----------------------------------------------------------------------------------
B|--3--------1--0-----------------0-----0--------1-----0-----0-----------------------
G|--0-----0-----------0-----2-----------0-----0--0--------2--0-----0-----2-----0--0--
D|--0--0-----------0-----0--0--0-----0--0--0-----2--2--------0--0-----0--0--------2--
A|-----------------------------------------------0--------------------------0-----2--
E|--3-----------------------2-----------3--------------------3-----------2--------0--

Stave 2:

E|-------------------------------------------------------------------
B|-------------------------0--0--------0--1--0--0--------------------
G|-------0--0--------0--2-----0-----0-----0-----0-----0--0--2--0--0--
D|--0h2-----0-----0-----0-----0--0--------2-----2--2--------0-----0--
A|----3--------2--------------------------0--------------------------
E|----------3-----------2-----3-----------------0-----------------3--

							http://www.guitartabcreator.com
Chords

Instruments
{"strings":[[[".",".",".",".",".",".",".",".",".",".",".",".",".",".",".",".",".",".",".",".",".",".",".",".",".",".","."],[3,".",".",1,0,".",".",".",".",".",0,".",0,".",".",1,".",0,".",0,".",".",".",".",".",".","."],[0,".",0,".",".",".",0,".",2,".",".",".",0,".",0,0,".",".",2,0,".",0,".",2,".",0,0],[0,0,".",".",".",0,".",0,0,0,".",0,0,0,".",2,2,".",".",0,0,".",0,0,".",".",2],[".",".",".",".",".",".",".",".",".",".",".",".",".",".",".",0,".",".",".",".",".",".",".",".",0,".",2],[3,".",".",".",".",".",".",".",2,".",".",".",3,".",".",".",".",".",".",3,".",".",".",2,".",".",0]],[[".",".",".",".",".",".",".",".",".",".",".",".",".",".",".",".",".",".",".",".",".",".","."],[".",".",".",".",".",".",".",".",".",0,0,".",".",0,1,0,0,".",".",".",".",".","."],[".",".",".",0,0,".",".",0,2,".",0,".",0,".",0,".",0,".",0,0,2,0,0],[0,"h",2,".",0,".",0,".",0,".",0,0,".",".",2,".",2,2,".",".",0,".",0],[".",".",3,".",".",2,".",".",".",".",".",".",".",".",0,".",".",".",".",".",".",".","."],[".",".",".",".",3,".",".",".",2,".",3,".",".",".",".",".",0,".",".",".",".",".",3]]],"numberofstrings":6,"notes":["E","B","G","D","A","E","B"],"capo":"1","stringnotes":["E4","B3","G3","D3","A2","E2"],"comments":["Stave 1:","Stave 2:","Stave 3:"],"timing":[["W","W","W","W","W","W","W","W","W","W","W","W","W","W","W","W","W","W","W","W","W","W","W","W","W","W","W"],["W",null,"W","W","W","W","W","W","W","W","W","W","W","W","W","W","W","W","W","W","W","W","W"],["W","W","W","W","W","W","W","W","W","W","W","W","W","W","W","W","W","W","W","W","W","W"]],"timingvisible":false,"tabcounter":22,"stave":1,"totalstaves":2,"instrument":"6guitar","selectedtuning":"6_standard","version":"13"}

Member for

1 month 3 weeks
Submitted by Hot_Schmoes on Mon, 2020-11-30 18:26