Glory to his name

01234567891011121314151617181920212223
E
B
G
D
A
E
B
0 1 2 3 4 5 6 7 8 9 10 11 12 13 14 15 16 17 18 19 20 21 22 23
(/) Slide Up  (\) Slide Down  (h) Hammer On  (p) Pull Off  (b) Bend (r) Release (v) Vibrato

Verse

G|--------------|--------------|--------------|--------------|--------------|--------------|--------------|--------------
D|--5-----5--5--|--------------|--------2-----|--------------|--------------|--------------|--------5-----|--------------
A|--------------|--5-----5--5--|--3-----------|--------------|--------------|--5-----5--5--|--2-----------|--5-----------
E|--------------|--------------|--------------|--3-----------|--3-----3--3--|--------------|--------------|--------------
B|--------------|--------------|--------------|--------------|--------------|--------------|--------------|--------------

Verse

G|--------------|--------------|--------------|--------------|--------------|--------------|--------------|--------------
D|--5-----5--5--|--------------|--------2-----|--------------|--------------|--------------|--------------|--------------
A|--------------|--5-----5--5--|--3-----------|--3-----------|--------------|--5-----------|--------5-----|--------------
E|--------------|--------------|--------------|--------------|--3-----3-----|--------5-----|--3-----------|--3-----------
B|--------------|--------------|--------------|--------------|--------------|--------------|--------------|--------------

Chorus

G|--------------|--------------|--------------|--------------|--------------|--2-----------
D|--------2--5--|--2-----------|--------------|--------------|--------------|--------------
A|--3-----------|--------------|--2-----5-----|-----------5--|--------5-----|--------5-----
E|--------------|--------3-----|--------------|--3-----3-----|--3-----------|--------------
B|--------------|--------------|--------------|--------------|--------------|--------------

Chorus

G|--------------|--------------|--------------|--------------|--------------|--------------|--------------|--------------
D|--5-----5--5--|--------------|--------2-----|--------------|--------------|--------------|--------------|--------------
A|--------------|--5-----5--5--|--3-----------|--3-----------|--------------|--5-----------|--------5-----|--------------
E|--------------|--------------|--------------|--------------|--3-----3-----|--------5-----|--3-----------|--3-----------
B|--------------|--------------|--------------|--------------|--------------|--------------|--------------|--------------

							http://www.guitartabcreator.com
Chords

Tab Notes
Glory to his name (Key G)
Instruments
{"strings":[[[".","_",".",".","|",".","_",".",".","|",".","_",".","_","|",".","_","_","_","|",".","_",".",".","|",".","_",".",".","|",".","_",".","_","|",".","_","_","_"],[5,"_",5,5,"|",".","_",".",".","|",".","_",2,"_","|",".","_","_","_","|",".","_",".",".","|",".","_",".",".","|",".","_",5,"_","|",".","_","_","_"],[".","_",".",".","|",5,"_",5,5,"|",3,"_",".","_","|",".","_","_","_","|",".","_",".",".","|",5,"_",5,5,"|",2,"_",".","_","|",5,"_","_","_"],[".","_",".",".","|",".","_",".",".","|",".","_",".","_","|",3,"_","_","_","|",3,"_",3,3,"|",".","_",".",".","|",".","_",".","_","|",".","_","_","_"],[".","_",".",".","|",".","_",".",".","|",".","_",".","_","|",".","_","_","_","|",".","_",".",".","|",".","_",".",".","|",".","_",".","_","|",".","_","_","_"]],[[".","_",".",".","|",".","_",".",".","|",".","_",".","_","|",".","_","_","_","|",".","_",".","_","|",".","_",".","_","|",".","_",".","_","|",".","_","_","_"],[5,"_",5,5,"|",".","_",".",".","|",".","_",2,"_","|",".","_","_","_","|",".","_",".","_","|",".","_",".","_","|",".","_",".","_","|",".","_","_","_"],[".","_",".",".","|",5,"_",5,5,"|",3,"_",".","_","|",3,"_","_","_","|",".","_",".","_","|",5,"_",".","_","|",".","_",5,"_","|",".","_","_","_"],[".","_",".",".","|",".","_",".",".","|",".","_",".","_","|",".","_","_","_","|",3,"_",3,"_","|",".","_",5,"_","|",3,"_",".","_","|",3,"_","_","_"],[".","_",".",".","|",".","_",".",".","|",".","_",".","_","|",".","_","_","_","|",".","_",".","_","|",".","_",".","_","|",".","_",".","_","|",".","_","_","_"]],[[".","_",".",".","|",".","_",".","_","|",".","_",".","_","|",".","_",".",".","|",".","_",".","_","|",2,"_",".","_"],[".","_",2,5,"|",2,"_",".","_","|",".","_",".","_","|",".","_",".",".","|",".","_",".","_","|",".","_",".","_"],[3,"_",".",".","|",".","_",".","_","|",2,"_",5,"_","|",".","_",".",5,"|",".","_",5,"_","|",".","_",5,"_"],[".","_",".",".","|",".","_",3,"_","|",".","_",".","_","|",3,"_",3,".","|",3,"_",".","_","|",".","_",".","_"],[".","_",".",".","|",".","_",".","_","|",".","_",".","_","|",".","_",".",".","|",".","_",".","_","|",".","_",".","_"]],[[".","_",".",".","|",".","_",".",".","|",".","_",".","_","|",".","_","_","_","|",".","_",".","_","|",".","_",".","_","|",".","_",".","_","|",".","_","_","_"],[5,"_",5,5,"|",".","_",".",".","|",".","_",2,"_","|",".","_","_","_","|",".","_",".","_","|",".","_",".","_","|",".","_",".","_","|",".","_","_","_"],[".","_",".",".","|",5,"_",5,5,"|",3,"_",".","_","|",3,"_","_","_","|",".","_",".","_","|",5,"_",".","_","|",".","_",5,"_","|",".","_","_","_"],[".","_",".",".","|",".","_",".",".","|",".","_",".","_","|",".","_","_","_","|",3,"_",3,"_","|",".","_",5,"_","|",3,"_",".","_","|",3,"_","_","_"],[".","_",".",".","|",".","_",".",".","|",".","_",".","_","|",".","_","_","_","|",".","_",".","_","|",".","_",".","_","|",".","_",".","_","|",".","_","_","_"]]],"numberofstrings":5,"notes":["G","D","A","E","B"],"capo":0,"stringnotes":["G2","D2","A1","E1","B0"],"comments":["Verse","Verse","Chorus","Chorus"],"timing":[["H","H","H","H",null,"H","H","H","H",null,"H","H","H","H",null,"H","H","H","H",null,"H","H","H","H",null,"H","H","H","H",null,"H","H","H","H",null,"H","H","H","H"],["H","H","H","H",null,"H","H","H","H",null,"H","H","H","H",null,"H","H","H","H",null,"H","H","H","H",null,"H","H","H","H",null,"H","H","H","H",null,"H","H","H","H"],["H","H","H","H",null,"H","H","H","H",null,"H","H","H","H",null,"H","H","H","H",null,"H","H","H","H",null,"H","H","H","H"],["H","H","H","H",null,"H","H","H","H",null,"H","H","H","H",null,"H","H","H","H",null,"W","W","W","W",null,"W","W","W","W",null,"W","W","W","W",null,"W","W","W","W"]],"timingvisible":false,"tabcounter":39,"stave":3,"totalstaves":4,"instrument":"5bass","selectedtuning":"5bass","version":"13"}

Member for

1 month 3 weeks
Submitted by hostag on Wed, 2021-11-24 15:53