Sound will begin in 5 seconds

Sirenia

01234567891011121314151617181920212223
E
B
G
D
A
E
B
0 1 2 3 4 5 6 7 8 9 10 11 12 13 14 15 16 17 18 19 20 21 22 23
Song Science #1: How Pros Use 6 Chords to Write Hit Songs
(/) Slide Up  (\) Slide Down  (h) Hammer On  (p) Pull Off  (b) Bend (r) Release (v) Vibrato

Stave 1:

F|-----------------------------------------------------------------------------
C|-----------------6-----------------------1--2--1-----------------------------
G|--4--------4--------7--4--4--2--------2-----------2--0--------4--4-----5--5--
C|-----------------------------------------------------------------------------
B|-----------------------------------------------------------------------------

Stave 2:

F|--------------------------------------------------------------------
C|--------------------------------------------------------------------
G|--4-----------------------------------------------------4--4--5--5--
C|--------------------------------------------------------------------
B|--------------------------------------------------------------------

Stave 3:

F|--------------------------------------------------------------
C|--------------------------------------------------------------
G|--------------------------------------------------------------
C|--7--------4--5--7--9--------6--7--9--------------9-----------
B|--------------------------------------0-----------------------

Stave 4:

F|-----------------------------------------------------------------------------------------
C|-----------------------------------------------------------------------------------------
G|-----------------------------------------------------------------------------------------
C|-----------------------------------------------------------------------------------------
B|--0-----1-----0--0-----0-----0--1--0--1--0--1--7-----0-----1-----0--0-----0--8-----7-----

Stave 5:

F|--------------------------------------------
C|--------------------------------------------
G|--------------------------------------------
C|--------------------------------------------
B|--0-----------0--0--0--------0--0-----1--1--

http://www.guitartabcreator.com
Guitar Tab Creator is intended to store guitar tab created through the tool. It currently does not support in-line text editing. Any text you place in here will be lost. If you need to comment on your tab, please use the "Tab Notes" section located below.