Sound will begin in 5 seconds

Trivial

Chords
01234567891011121314151617181920212223
E
B
G
D
A
E
B
0 1 2 3 4 5 6 7 8 9 10 11 12 13 14 15 16 17 18 19 20 21 22 23
Song Science #1: How Pros Use 6 Chords to Write Hit Songs
(/) Slide Up  (\) Slide Down  (h) Hammer On  (p) Pull Off  (b) Bend (r) Release (v) Vibrato

Stave 1:

E|-----------------------------|--3--3--3--3--1--1-----1--1-----|--1------------|------------------------
B|-----------------------------|--3--3--3--3--3--3-----3--3-----|--3------------|------------------------
G|--------7--7--2--2-----------|--5--5--3--3--2--2-----2--2-----|--2------------|-----------7--7h8-----7h
D|--9--9--7--7--2--2--5--5-----|--5--5--3--3--0--0-----0--0-----|--0---------3--|-----7--9----------9----
A|--9--9--5--5--0--0--5--5--0--|--3--3--5--5--------------------|-----0h3/5-----|--9---------------------
E|--7--7--------------3--3-----|--------3--3--------1--------1--|---------------|------------------------

Stave 2:

E|-----------------------------------------------------------------------------------------------------
B|------------------------------------------------7-----7-----7-----10---------------------------------
G|--9-----------7-----8--9-----11--11--11--9----------------------------7--9--9--7-----------------11--
D|-----7-----7--------------7-----------------12-----9-----9-----9--------------------------8--11------
A|--------9------------------------------------------------------------------------------9-------------
E|-----------------7----------------------------------------------------------------10v----------------

Stave 3:

E|-------------------------------------------------------------7---------------------10--10--12--
B|---------7--10-----------------------------------------------------7--10--------9--------------
G|-------------------------------------7-----------7--------------9------------------------------
D|------9---------8--------------7/14-----9--9--9-----9--9--9---------------7--7-----------------
A|--10------------------7--8--9------------------------------------------------------------------
E|-------------------7---------------------------------------------------------------------------

Stave 4:

E|-----12--12--5--5--5--4--4--4-----------------------------------------------------
B|--9----------5--5--5--5--5--5--3-----3--5--3--------------------------------------
G|----------------------------------------------------------2--2--------------4--4--
D|----------------------------------4--------------4-----4-----------4-----4--------
A|----------------------------------------------2-----2-----------1-----1-----------
E|----------------------------------------------------------------------------------

Stave 5:

E|-------------------------------------------
B|-------------------------------------------
G|-------------------------------7--7--9-----
D|-------------------------7--9--------------
A|-----5-----5--7--5--7/9--------------------
E|--4-----4-------------------------------7--

http://www.guitartabcreator.com
Guitar Tab Creator is intended to store guitar tab created through the tool. It currently does not support in-line text editing. Any text you place in here will be lost. If you need to comment on your tab, please use the "Tab Notes" section located below.