Sound will begin in 5 seconds

Thunderstorm blues

Chords
01234567891011121314151617181920212223
E
B
G
D
A
E
B
0 1 2 3 4 5 6 7 8 9 10 11 12 13 14 15 16 17 18 19 20 21 22 23
Song Science #1: How Pros Use 6 Chords to Write Hit Songs
(/) Slide Up  (\) Slide Down  (h) Hammer On  (p) Pull Off  (b) Bend (r) Release (v) Vibrato

Stave 1:

E|-----0-------------------------------------------------|--------------------------------------
B|-----0-----------------------------9\7-----------------|--------------------------------------
G|-----1-----4-----------------------9-7-----------------|--------------------------------------
D|-----2-----5-----------------------9-7-----------------|--------5-----2--------5-----2--------
A|-----2-----7--5--7----------------------------------5--|--------------------------------------
E|-----0-----0--------5--3--0--0--0-------5--5--6--7-----|--0--0-----4-----0--0-----4-----0--0--

Stave 2:

E|-----------------------------------4--5--5--5-----7\5--4--5---------------------------------------------
B|-----------------------------------4--5--5--5-----7-5--4--5---------------------------------------------
G|--------------------------------2--4--5--5--5-----7-5--4--5-----------2-----------2--2--2p0-------0-----
D|--5-----2--------5-----2--2--5-----3--4--------7-------3--4-----------1-----------1--1-------2p0-----2--
A|-----4--------------4----------------------------------------0--1--2-----0--1--2------------------------
E|-----------0--0--------------------4--5-----------------------------------------------------------------

Stave 3:

E|-----------------------------
B|-----------------------------
G|-----------------------------
D|-----0--0-----0--2-----------
A|--2--------2--------0--------
E|-----------------------3--0--

http://www.guitartabcreator.com
Guitar Tab Creator is intended to store guitar tab created through the tool. It currently does not support in-line text editing. Any text you place in here will be lost. If you need to comment on your tab, please use the "Tab Notes" section located below.