Sound will begin in 5 seconds

Thunderstorm

Chords
01234567891011121314151617181920212223
E
B
G
D
A
E
B
0 1 2 3 4 5 6 7 8 9 10 11 12 13 14 15 16 17 18 19 20 21 22 23
Song Science #1: How Pros Use 6 Chords to Write Hit Songs
(/) Slide Up  (\) Slide Down  (h) Hammer On  (p) Pull Off  (b) Bend (r) Release (v) Vibrato

Stave 1:

E|--------------------------------------|--------3--------------5--------------3--------------|--
B|--------------------------------------|--2-----3--------------5--------------3--------------|--
G|--2-----------------------------------|--2-----5--------------7-----------------------------|--
D|--2--4--5-----5-----3--2-----0-----2--|--2-----3--------------5--------------4--------------|--
A|--0--------3-----3--------3-----3-----|--0--0-----0--0--0--0-----0--0--0--0-----0--0--0--0--|--
E|-----------------1--------------------|-----------------------------------------------------|--

Stave 2:

E|----------------------------------------0--0--0--0--------0-----------0--------0--------0--
B|----------------------------------------0--0--6-----6--------6-----------6--------6-----3--
G|--------0--------0-----2p0-----4--------2--0--5-----------------0-----------5--------5--2--
D|-----5--------4-------------------2--2--3-----0--------0--------------------------------0--
A|--7--------5--------3-------2-----2--2--3--------------------------------------------------
E|----------------------------------0--0-----------------------------6--------------------3--

Stave 3:

E|--0-----------0-----0--0--------0-----0--0--------0--------0--0-----------------------------
B|-----3-----------3--2-----2--------2--3-----3--------3-----0-----0--------------------------
G|--------2-----------0--------------------------------------6--------6-----------------------
D|--------------------2--------2--------2--------2--------2--7--------------------------------
A|--------------------0-----------------0--------------------0-----------0--0--0--0--0--0--0--
E|-----------3--------------------------------------------------------------------------------

Stave 4:

E|-----------------------------------------------------------------------3--3--------------
B|--------------5-----------------------1--0-----------------------------3--5--6--5--------
G|--2--------2--5--------------0--------------0--------------0--------------5--5--5--4--5--
D|--2-----2-----5--5--5-----------------------0--0--3--2--0--0-----------------------5--3--
A|--0--0--------3--5--5-----1-----1--------------2-----------3--3--2-----------------------
E|--------------3--3--3--1-----------3-----------3-----------1--------3--------------------

Stave 5:

E|-----------3-------------------------------------------------------
B|-----------3-----------0--------------------------1----------------
G|-----------0--------0-----------0--------0-----------0----------0--
D|-----------0--4--5-----------7--------0-----0--3----------------0--
A|--3--2--------------------8--------3--------------------1/2--------
E|--------3----------------------------------------------------3-----

http://www.guitartabcreator.com
Guitar Tab Creator is intended to store guitar tab created through the tool. It currently does not support in-line text editing. Any text you place in here will be lost. If you need to comment on your tab, please use the "Tab Notes" section located below.