Sound will begin in 5 seconds

Sunday

Chords
01234567891011121314151617181920212223
E
B
G
D
A
E
B
0 1 2 3 4 5 6 7 8 9 10 11 12 13 14 15 16 17 18 19 20 21 22 23
Song Science #1: How Pros Use 6 Chords to Write Hit Songs
(/) Slide Up  (\) Slide Down  (h) Hammer On  (p) Pull Off  (b) Bend (r) Release (v) Vibrato

Stave 1:

E|--------2--2--------4--4--|--0-----------------------------0-----------0--------|--
B|--------2--2--------4--4--|--0--0--------------0--------------0-----------0-----|--
G|--------2--2--------4--4--|--3-----3--------------3--------------3-----------3--|--
D|-----4-----------6--------|--4--------4-----4--------4--------------------------|--
A|--4-----------6-----------|--4--------------------------------------------------|--
E|--------------------------|--2-----------0--------------2-----------0-----------|--

Stave 2:

E|--0--------0--------3--------2--------|-------------------7--9--10--------------12--
B|--2--------0--------0--------3--------|-------2--2-----3--7---------8--8------------
G|--2--------1--------0--------2--------|--4b2------------------------------9---------
D|--2--------2--------0--------0--0--0--|-------------4------------------------9------
A|--0--0--0--2--------2-----------------|---------------------------------------------
E|-----------0--0--0--3--3--3-----------|---------------------------------------------

Stave 3:

E|--14--12--------------------0-----10-----5-------------------------------------------|--
B|----------10--12b10------8-----8------6-----6--3-------6-----------------------------|--
G|--------------------------------------------------5/6-----5--------4-----------------|--
D|---------------------11--------------------------------------7--4-----4--2--------4--|--
A|----------------------------------------------------------------------------2--4-----|--
E|-------------------------------------------------------------------------------------|--

http://www.guitartabcreator.com
Guitar Tab Creator is intended to store guitar tab created through the tool. It currently does not support in-line text editing. Any text you place in here will be lost. If you need to comment on your tab, please use the "Tab Notes" section located below.