Sound will begin in 5 seconds

Sun setting fast

Chords
01234567891011121314151617181920212223
E
B
G
D
A
E
B
0 1 2 3 4 5 6 7 8 9 10 11 12 13 14 15 16 17 18 19 20 21 22 23
Song Science #1: How Pros Use 6 Chords to Write Hit Songs
(/) Slide Up  (\) Slide Down  (h) Hammer On  (p) Pull Off  (b) Bend (r) Release (v) Vibrato

Stave 1:

E|-----------------------------------------------------------0-----|--0--0--|--------------
B|-----------0--0--------------0--------------0-----1--0--------0--|--0--1--|--2--2--3--3--
G|--------0--------0--------0-----0--------0-----0--------2--------|--0--0--|--2--2--2--2--
D|-----2-----------------2--------------2--------------------------|--0--3--|--2--2--2--2--
A|-----------------------------------------------------------------|--3--3--|--0--0--0--0--
E|--0-----------------2--------------1-----------------------------|--1-----|--------------

Stave 2:

E|--0--0--3--3--|--0--0--|-----------------------------------------------------------------
B|--3--3--0--0--|--0--1--|-----------------------------------------------------------------
G|--0--0--0--0--|--0--0--|--------------0--------------2--------------0--------------0--0--
D|--2--2--0--0--|--0--3--|-----0--2--2--------0--2--2--------0--2--2--------0--2--2-----0--
A|--3--3--2--2--|--2-----|-----------------------------------------------------------------
E|--------3--3--|--3-----|--3--------------3--------------1--------------1-----------------

Stave 3:

E|-----------------------------------------0--------------0--3--------------3--------------
B|-----------------------------1--------3-----1--------3-----3--3-----5--3--3--3-----5--3--
G|-----0--2--4--0-----0--2--4-----0--------------0-----------------0--------------0--------
D|--------------0--------------------0--------------0--------------------------------------
A|-----------------------------------------------------------------------------------------
E|--3--------------3-----------1--------------1--------------3--------------3--------------

Stave 4:

E|--0--------------0--------------------------------------------------------------------------
B|-----6--------6-----6--------6--------------------------------------------------------------
G|--------5--------------5--------------------0--------------0--------------0--------------0--
D|--0--------0-----0--------0-----------------0--------------0--------0--2-----------0--2-----
A|--------------------------------2--2--2--3-----2--2--2--3--------3--------------3-----------
E|--------------------------------3--3--3--3-----3--3--3--3-----1--------------1--------------

Stave 5:

E|-----------------------------------------------------------------------------------------
B|--------------0--------------0-----------------------------------------------------------
G|--------0--2-----------0--2-----------------------------------------------------------0--
D|-----5--------------5-----------3--2--0-----0--3--2--0-----0--------------------0--2-----
A|-----------------------------------------3--------------3--------2--2--3--5--5-----------
E|--3--------------3--------------------------------------------3--------------------------

Stave 6:

E|-----------------------------------------------------------------------------------------
B|--------------------------------------------------------6-----8--------------------------
G|--------------------------0-----------7-----7--9--7--5--------------------0-----------0--
D|-----------0-----0--2--3-----------9-----9-----------------7-----------2-----2--------0--
A|-----2--3-----3-----------------7-----------------------------------3-----------3--3-----
E|--1--------------------------8-----------------------------------3-----------------------

Stave 7:

E|-----------------------------
B|--1--------------------------
G|-----2--------------------0--
D|--------3--2-----------0-----
A|--------------3--2-----------
E|--------------------3--------

http://www.guitartabcreator.com
Guitar Tab Creator is intended to store guitar tab created through the tool. It currently does not support in-line text editing. Any text you place in here will be lost. If you need to comment on your tab, please use the "Tab Notes" section located below.