Sound will begin in 5 seconds

Solo for song # 117----July 2015

Chords
01234567891011121314151617181920212223
E
B
G
D
A
E
B
0 1 2 3 4 5 6 7 8 9 10 11 12 13 14 15 16 17 18 19 20 21 22 23
Song Science #1: How Pros Use 6 Chords to Write Hit Songs
(/) Slide Up  (\) Slide Down  (h) Hammer On  (p) Pull Off  (b) Bend (r) Release (v) Vibrato

Stave 1:

E|--------------------------------5--7-----------------------------------------5--9--10--9--
B|--------------5--7--5--------5--------5--7--6-----------------------------5---------------
G|-----------6-----------6--5--------------------------------------------6------------------
D|--------6--------------------------------------------7--6--7--------7---------------------
A|-----4-----------------------------------------5--4-----------5--8------------------------
E|--5---------------------------------------------------------------------------------------

Stave 2:

E|--5--7-----5--7-----5--7-----------------7--10--9---------------------------------------------
B|--------7--------6--5--7-----5--7--5--5------------10-----------------12--10--------------10--
G|--------------------------6----------------------------11--10---------------------10--11------
D|--------------------------7--7--7--6---------------------------9--11----------12--------------
A|----------------------------------------------------------------------------------------------
E|----------------------------------------------------------------------------------------------

Stave 3:

E|--------------------------------------9--7--7-----5--0--------------
B|----------10--12--10----------10--12-----7--7-----5-----0-----------
G|-----------------------------------------7--7-----6--------6--------
D|--12--11--------------11--10----------------9-----7-----------------
A|-----------------------------------------------8--7--------------0--
E|--------------------------------------------------5-----------0-----

http://www.guitartabcreator.com
Guitar Tab Creator is intended to store guitar tab created through the tool. It currently does not support in-line text editing. Any text you place in here will be lost. If you need to comment on your tab, please use the "Tab Notes" section located below.