Sound will begin in 5 seconds

peace

01234567891011121314151617181920212223
E
B
G
D
A
E
B
0 1 2 3 4 5 6 7 8 9 10 11 12 13 14 15 16 17 18 19 20 21 22 23
Song Science #1: How Pros Use 6 Chords to Write Hit Songs
(/) Slide Up  (\) Slide Down  (h) Hammer On  (p) Pull Off  (b) Bend (r) Release (v) Vibrato

Stave 1:

E|-----------------------------------------------------------------------------------------------------
B|-----------------------------------------------------------------------------------------------------
G|--------------------------------------------------------7--------5--4--2--2--4-----------------------
D|--------4--5-----4--5--------4--5-----------------------7--4--5-----------------5--------------------
A|--5--5--------3--------2--5--------1--0--1--0-----3--5--5--------------------------3-----------------
E|-----------------------------------------------3-----------------------------------------------------

Stave 2:

E|------------------------------------------------14--14--------------
B|----------------------------------------15--17----------10--11--12--
G|--4-----4--5--------------------14--14------------------------------
D|-----7------------------16--17--------------------------------------
A|--------------7--5--17----------------------------------------------
E|--------------0-----------------------------------------------------

Stave 3:

E|--7---------7-----------------------------------------0-----------------------
B|-----10--7--------------5-----------------------------0-----------------------
G|---------------7--2--3--------------------------------2-----------------------
D|------------------------------------5--4--4-----1--2--2--1--2--------1--2-----
A|------------------------------3--5--------2--2--------0-----------2-----------
E|---------------------------3-----------------------------------4-----------3--

http://www.guitartabcreator.com
Guitar Tab Creator is intended to store guitar tab created through the tool. It currently does not support in-line text editing. Any text you place in here will be lost. If you need to comment on your tab, please use the "Tab Notes" section located below.