Sound will begin in 5 seconds

Midnight blues

Chords
01234567891011121314151617181920212223
E
B
G
D
A
E
B
0 1 2 3 4 5 6 7 8 9 10 11 12 13 14 15 16 17 18 19 20 21 22 23
Song Science #1: How Pros Use 6 Chords to Write Hit Songs
(/) Slide Up  (\) Slide Down  (h) Hammer On  (p) Pull Off  (b) Bend (r) Release (v) Vibrato

Stave 1:

E|--------7--10-----------------7-----------------------------7--10--7-----------------------
B|-----8---------------------------8--7--8--------------7---------------8--------------------
G|--7------------------7--6-----------------------7--9---------------------9--6--7--6--------
D|------------------8-----------------------9--9--9--------8---------------------------7-----
A|---------------9------------------------------------------------------------------------9--
E|---------------------------7---------------------------------------------------------------

Stave 2:

E|-------------------------------------------------5--4--5--4/12------------10--7---------------
B|-------------------------------3--2-----------3-----------------10--9--9---------10-----------
G|-------------------7-----------------------4--------------------9---9--9-------------7--8-----
D|----------------------7--9--------------4--------------------------------------------------9--
A|--7--5--7--6/7--9-----------------------------------------------------------------------------
E|----------------------------0--------2--------------------------------------------------------

Stave 3:

E|-----------------
B|-----------------
G|--9--9-----------
D|--9--9-----------
A|--8--7--5--6-----
E|--------------7--

http://www.guitartabcreator.com
Guitar Tab Creator is intended to store guitar tab created through the tool. It currently does not support in-line text editing. Any text you place in here will be lost. If you need to comment on your tab, please use the "Tab Notes" section located below.