Sound will begin in 5 seconds

Hope

Chords
01234567891011121314151617181920212223
E
B
G
D
A
E
B
0 1 2 3 4 5 6 7 8 9 10 11 12 13 14 15 16 17 18 19 20 21 22 23
Song Science #1: How Pros Use 6 Chords to Write Hit Songs
(/) Slide Up  (\) Slide Down  (h) Hammer On  (p) Pull Off  (b) Bend (r) Release (v) Vibrato

Stave 1:

E|------------------------------------------------------------------------------------------------------
B|------------------------------------------------------------------------------------------------------
G|--------2---------------5-----4-----4--5-----------------2--------------------------------------------
D|-----3-------------5/7-----0-----7--------0--5--4--0--2--2-----------2--------------------4-----------
A|--5--------0--3/5----------------------------------------0--0--4--5--------5--4--5--5--7-----7--5--7--
E|------------------------------------------------------------------------3-----------3--5--------------

Stave 2:

E|----------------------------------------------------------------------------7------7--9--12--
B|------------------------------------------------------------------------10-----10------------
G|-----------7--9--7/9--7--6--7--------7--6--------9--11--12--12--11--12-----------------------
D|--7-----7-------------------------7--------7--5----------------------------------------------
A|--7--7-------------------------9-------------------------------------------------------------
E|--5------------------------------------------------------------------------------------------

Stave 3:

E|--10--9--10--------------7--5--7--9------9------9--10--12--10--9--10-----7/9--7--9------|-----------
B|-------------10--12--12--------------10-----12------------------------5-------------10--|-----------
G|----------------------------------------------------------------------------------------|--2--2--0--
D|----------------------------------------------------------------------------------------|-----------
A|----------------------------------------------------------------------------------------|-----------
E|----------------------------------------------------------------------------------------|-----------

Stave 4:

E|--------------------------3--2-----|--
B|-----------------------3-----------|--
G|--------------------2--------------|--
D|--4--5-----------3--------------0--|--
A|--------2--3--5--------------------|--
E|-----------------------------------|--

http://www.guitartabcreator.com
Guitar Tab Creator is intended to store guitar tab created through the tool. It currently does not support in-line text editing. Any text you place in here will be lost. If you need to comment on your tab, please use the "Tab Notes" section located below.