Sound will begin in 5 seconds

Eraser

Chords
01234567891011121314151617181920212223
E
B
G
D
A
E
B
0 1 2 3 4 5 6 7 8 9 10 11 12 13 14 15 16 17 18 19 20 21 22 23
Song Science #1: How Pros Use 6 Chords to Write Hit Songs
(/) Slide Up  (\) Slide Down  (h) Hammer On  (p) Pull Off  (b) Bend (r) Release (v) Vibrato

Stave 1:

E|--0/0--0--0/0-----------------------------------------------------------------------------------------
B|--3-6--3--3-7-----------------------------------------------------------------------7-----------8--7--
G|--2-5--2--2-6-----------9--------------------------------------------------------7-----9--7-----------
D|--0-0--0--0-0--9--9-----7-----------------------4-----------5--4-----4--5--7--9--------------9--------
A|---------------9--9--9-----5--5--5--7--7-----5-----7--5-----------7-----------------------------------
E|----------3-7--7--7--7-----3--3--3--5--5--7--------------7--------------------------------------------

Stave 2:

E|----------------------------------------------------10--10------9--10--12-----------------------
B|-----------10--7-----8--------7--7--------------10----------12-----------------7h8--7-----7--8--
G|-----6--7---------------7--9--------9--7-----------------------------------11-------------------
D|--9---------------------------------------9/11-----------------------------------------9--------
A|------------------------------------------------------------------------------------------------
E|------------------7-----------------------------------------------------------------------------

Stave 3:

E|------------------------------------9------9--10--7--------------------------------------------------
B|------7h8\7------7--10------10--12-----10------------------------------------------------3-----------
G|-----------------------------------------------------9--7--9--7--------7-----------6-----------------
D|--10---------10---------11---------------------------------------9--7-----9--9-----------------------
A|-----------------------------------------------------------------------------------------------2--3--
E|--------------------------------------------------------------------------------7-----5-----3--------

Stave 4:

E|-------------------------------------------
B|-------------------------------------------
G|-------------------------------6-----------
D|-----4-----7----------------7--7-----------
A|--5-----7-----0--4/5--7-----------9--9--9--
E|-------------------------5--------7--7--7--

http://www.guitartabcreator.com
Guitar Tab Creator is intended to store guitar tab created through the tool. It currently does not support in-line text editing. Any text you place in here will be lost. If you need to comment on your tab, please use the "Tab Notes" section located below.