Sound will begin in 5 seconds

Earth and sky

Chords
01234567891011121314151617181920212223
E
B
G
D
A
E
B
0 1 2 3 4 5 6 7 8 9 10 11 12 13 14 15 16 17 18 19 20 21 22 23
Song Science #1: How Pros Use 6 Chords to Write Hit Songs
(/) Slide Up  (\) Slide Down  (h) Hammer On  (p) Pull Off  (b) Bend (r) Release (v) Vibrato

Stave 1:

E|--0--------------0-----------------------|--------------------0-----0--0-----------------------
B|--0--------------0-----------------------|--------------------0--0--3--3-----------------------
G|--0--------------0-----------------------|--2--2--2--4--------0--0--2--2-----------------7-----
D|--2-----4-----5--4-----5-----------------|--2--2--2--2--5--5--2--2--0--0-----------------7-----
A|--2--2-----3-----5--3--------7--------5--|--0--0--0--0--0--0--2--2--------5--5--5--5--5--5--7--
E|--0--------------5--------5-----5--7-----|--------------------0--0--2--2--3--3--2--2--2-----5--

Stave 2:

E|-----------------------------------------------|------------9-----------------------------------------
B|-----------------------------------------------|--10--8-----------------------------------------------
G|-----------------5--5--5-----------------------|---------9-----12--11--9--11--9------9--9-------------
D|-----2--------5--5--5--5--3--3--3--3--3-----3--|---------------------------------12--------11---------
A|--7--2--5--5--5--3--3--3--3--3--3--3--3--3--3--|-----------------------------------------------12--0--
E|--5--0--3--3--3-----------1--1--0--1--1--0--1--|------------------------------------------------------

Stave 3:

E|-----------------------------5--5----0----------------------0--0-----------------9--|--
B|--------------------3--3--3----------0----------------------3--3-------------10-----|--
G|-----6--7--9--7--6--0--0-----------4b2--------2--2-----2--4b2--2---------11---------|--
D|--7-----------------0----------------4--2--4--------4-------0--0--9--12-------------|--
A|-------------------------------------0----------------------------------------------|--
E|---------------------------------------------------------------3--------------------|--

http://www.guitartabcreator.com
Guitar Tab Creator is intended to store guitar tab created through the tool. It currently does not support in-line text editing. Any text you place in here will be lost. If you need to comment on your tab, please use the "Tab Notes" section located below.