Sound will begin in 5 seconds

Dudley do right

Chords
01234567891011121314151617181920212223
E
B
G
D
A
E
B
0 1 2 3 4 5 6 7 8 9 10 11 12 13 14 15 16 17 18 19 20 21 22 23
Song Science #1: How Pros Use 6 Chords to Write Hit Songs
(/) Slide Up  (\) Slide Down  (h) Hammer On  (p) Pull Off  (b) Bend (r) Release (v) Vibrato

Stave 1:

E|-----------------------------3--3--2---------------------------------------------------
B|-----------------------3-----3--3--3----------------------------------1----------------
G|--------------0-----0-------------------------------------4--5--5--------0-------------
D|-----------2-----4--------0-------------------------5--7-----5--5-----------2-------4--
A|--3--2--0--------------------------------4--3--5/7-----------3--3--0-----------3/5-----
E|--------------------------------------5------------------------------------------------

Stave 2:

E|--------------------------------------------------------------0--------0--------------------
B|-----1-------------------1---------------------------------3-----3--------0-----------------
G|--------0-------------------0----------------2--1--2--2/4-----------2--------2-----2--1--2--
D|-----------2-------4-----------2-------4----------------------------------------------------
A|--0-----------3/5-----0-----------3/5-------------------------------------------------------
E|------------------------------------------0-------------------------------------0-----------

Stave 3:

E|----------0--------0--------|-------------------------------|-----------------------
B|-------3-----3--------0-----|-------------------------------|-----------------------
G|--2/4-----------2--------2--|----------------------4--5--5--|--------------------7--
D|----------------------------|----------------5--7-----5--5--|--------6--5-----6-----
A|----------------------------|-----4--3--5/7-----------3--3--|-----7-----------------
E|----------------------------|--5----------------------------|--0-----------0--------

Stave 4:

E|-----------------------------------------|--
B|-----------------------------------------|--
G|--------------------------------------7--|--
D|--------------------------6--5-----6-----|--
A|--5--5--5--6--6-----7--7-----------------|--
E|-----------------0--------------0--------|--

http://www.guitartabcreator.com
Guitar Tab Creator is intended to store guitar tab created through the tool. It currently does not support in-line text editing. Any text you place in here will be lost. If you need to comment on your tab, please use the "Tab Notes" section located below.