Sound will begin in 5 seconds

The d -word

Chords
01234567891011121314151617181920212223
E
B
G
D
A
E
B
0 1 2 3 4 5 6 7 8 9 10 11 12 13 14 15 16 17 18 19 20 21 22 23
Song Science #1: How Pros Use 6 Chords to Write Hit Songs
(/) Slide Up  (\) Slide Down  (h) Hammer On  (p) Pull Off  (b) Bend (r) Release (v) Vibrato

Stave 1:

E|--------------------------------------------|--------------------0--------------------------0-----
B|--------------------------------------------|-----------------------0-----------2-----2--------2--
G|-----------7--------------------7-----------|--2--3--------------------3-----3-----3-----3--------
D|--8--9--9--8-----------8--9--9--8--9--9--9--|--2--3--4--------------------------------------------
A|--7--7--7-----9--9--9--7--7--7-----7--7--7--|--0--1--4--4--4--------------------------------------
E|--0--0--0-----7--7--7--0--0--0-----0--0--0--|--------2--2--2--0-----------2-----------------------

Stave 2:

E|-----0--------------------------0-----------------------------------------------------------------
B|--------0-----------2-----2--------2--------------------------------------------------------------
G|-----------3-----3-----3-----3------------------------------------5-------------------------------
D|---------------------------------------------------------------------7--5h7--------------------5--
A|--------------------------------------4--4--4--4--4---------4--7-------------0--3--4--5--6--7-----
E|--0-----------2-----------------------2--2--2--2--2--4v--5----------------------------------------

Stave 3:

E|---------------------------------------------------------------------------------------------
B|---------------------------------------------------------------------------------------------
G|--5--5h7-----5h7-----------------------------------------------------------------------------
D|----------0-------0--------------0--------0--------------0--------0--------------------5-----
A|---------------------------3--4-----3--4-----------3--4-----3--4-----0--3--4--5--6--7-----7--
E|---------------------2--5--------------------2--5--------------------------------------------

Stave 4:

E|--------------|--------0--------|--
B|--------------|-----------0-----|--
G|--------------|--------------3--|--
D|--5--7--------|-----------------|--
A|--------3--0--|-----------------|--
E|--------------|--0--2-----------|--

http://www.guitartabcreator.com
Guitar Tab Creator is intended to store guitar tab created through the tool. It currently does not support in-line text editing. Any text you place in here will be lost. If you need to comment on your tab, please use the "Tab Notes" section located below.