Sound will begin in 5 seconds

Chord festival

Chords
01234567891011121314151617181920212223
E
B
G
D
A
E
B
0 1 2 3 4 5 6 7 8 9 10 11 12 13 14 15 16 17 18 19 20 21 22 23
Song Science #1: How Pros Use 6 Chords to Write Hit Songs
(/) Slide Up  (\) Slide Down  (h) Hammer On  (p) Pull Off  (b) Bend (r) Release (v) Vibrato

Stave 1:

E|--3-----3--7-----7--8------------------------------------10--12--8--3-----3--3--3--5-----3-----
B|--3-----3--8-----8--8----------------------------12--10--10--13--8--0-----1--1--3--5--4--------
G|-----0--------0-----8-----------9------------12--12--11--10--12--8--0--0-----------5--2-----0--
D|--------------0-----7--------9-----------12------12--12----------7--0--0-----------5--3-----0--
A|--------------------------7--------7/10-----------------------------2--------------------------
E|-----------------------8--------------------------------------------3--------------------------

Stave 2:

E|--3--------------------10--
B|--------------------0------
G|-----------------0---------
D|--------------0------------
A|-----------2---------------
E|-----2--3------------------

http://www.guitartabcreator.com
Guitar Tab Creator is intended to store guitar tab created through the tool. It currently does not support in-line text editing. Any text you place in here will be lost. If you need to comment on your tab, please use the "Tab Notes" section located below.