Sound will begin in 5 seconds

Chained

Chords
01234567891011121314151617181920212223
E
B
G
D
A
E
B
0 1 2 3 4 5 6 7 8 9 10 11 12 13 14 15 16 17 18 19 20 21 22 23
Song Science #1: How Pros Use 6 Chords to Write Hit Songs
(/) Slide Up  (\) Slide Down  (h) Hammer On  (p) Pull Off  (b) Bend (r) Release (v) Vibrato

Stave 1:

E|-----------------------5--------7-----------------------------------------------------------
B|--------7-----------7--5--7--7--7--7--7-----------------------------------------------------
G|--7--9-----7--------7--6--7--7--9--7--7-----------------------------------------------------
D|--------------9-----7--7--7--7--7--7--7-----0-----0--------0--2--2--2--------------------0--
A|--------------------5--7--------------5--0-----2-----2--1--------------4--------------5-----
E|-----------------7--6--5-----------7--6-----------------------------------2--2--2--7--------

Stave 2:

E|-----------------------------------------------------------------|--------0--------0--
B|-----------------------------------------------------------------|--------0--------0--
G|--------6-----------------------------------6--------------------|-----4--------4-----
D|-----7-----------2--------4--------0-----7-----------2--------4--|--5--------4--------
A|--4-----------2--------4--------5-----4-----------2--------4-----|--------------------
E|-----------0--------2--------7-----------------0--------2--------|--------------------

Stave 3:

E|--------0--------0--------0--------0--------------------------------------------------
B|--------0--------0--------0--------0-----0--------------------------------------------
G|-----4--------4--------4--------4-----------0-----0--------------------------------0--
D|--2--------2--------5--------4--------2--------------2--5--5--5--5--5--5--2-----------
A|--------------------------------------2-----------------4--4--4--4--4--4--2-----2-----
E|--------------------------------------0--------2--------5--5--5--5--5--5--0--0--------

Stave 4:

E|-----------------------------------------------------------------------------------
B|-----------------------------------------------------------------------------------
G|-----------0-----------0-----------0-----------------------------------------------
D|--2-----------2-----------2-----------5--5--5-----------------7--------7--5--5--5--
A|--2-----2-----2-----2-----2-----2-----4--4--4--5--5--5-----7--------7-----4--4--4--
E|--0--0--------0--0--------0--0--------5--5--5--6--6--6--5--------6--------5--5--5--

Stave 5:

E|-----------------------------0-----------------0--
B|--------------------------------1--------0-----0--
G|-----------------------------------0--2-----2--0--
D|-----------------7--------7--------------------2--
A|--5--5--5-----7--------7-----------------------2--
E|--6--6--6--5--------6-----------------2--------0--

http://www.guitartabcreator.com
Guitar Tab Creator is intended to store guitar tab created through the tool. It currently does not support in-line text editing. Any text you place in here will be lost. If you need to comment on your tab, please use the "Tab Notes" section located below.