Sound will begin in 5 seconds

blood roses

Chords
01234567891011121314151617181920212223
E
B
G
D
A
E
B
0 1 2 3 4 5 6 7 8 9 10 11 12 13 14 15 16 17 18 19 20 21 22 23
Song Science #1: How Pros Use 6 Chords to Write Hit Songs
(/) Slide Up  (\) Slide Down  (h) Hammer On  (p) Pull Off  (b) Bend (r) Release (v) Vibrato

Stave 1:

E|--------------------------------------3--3--3-----------|-------------------------------------
B|-----------------5-----------------8--3--3--3--------3--|-------------------------------------
G|-----------5-----------------8--------3--3--3-----0-----|---------------------------7--9------
D|-----5--------5--------8--------8-----1--1--0--0--------|--------------7--10-----8--------10--
A|--------5-----------------8-----------------------------|--------6--9---------9---------------
E|--5-----------------8-----------------------------------|--5--8-------------------------------

Stave 2:

E|--------------------------------------------------------------------------------------
B|--------------------------------------------------------------------------------------
G|-----7-----------3-----3-----3-----3-----2-----2-----2-----2--0--1--------------2--2--
D|--7-----8--------2-----2-----2-----2-----1-----1-----1-----1--------------2-----------
A|-----------9--3-----------3-----------2-----------2--------------------2--------4--4--
E|--------------------3-----------3-----------2-----------2-----------0--------0--------

Stave 3:

E|-----0-------------------------------------------------------------------------------|--
B|--0-------------------------------------------------------------------------------7--|--
G|-----------3--------2---------------------------7--9---------7--------5--------------|--
D|-----------2--------1--------------7--10-----8--------10--7-----8--------7-----5-----|--
A|-----------3--------2--------6--9---------9------------------------9--------6--------|--
E|--------0--------------5--8-------------------------------------------------------5--|--

Stave 4:

E|--------------------------------------------------------------------------------------
B|--------------------------------------3-----------------------------------------------
G|--------------------------5--------4-----------3--------3--------3--------3-----------
D|--------------------3--4--------5-----------4--------4--------2--------2-----------3--
A|--0--0--0--3--4--5-----------6-----------5--------5--------3--------3-----------2-----
E|-----------------------------------------------------------------------------3--------

http://www.guitartabcreator.com
Guitar Tab Creator is intended to store guitar tab created through the tool. It currently does not support in-line text editing. Any text you place in here will be lost. If you need to comment on your tab, please use the "Tab Notes" section located below.