Sound will begin in 5 seconds

Trident (end)

01234567891011121314151617181920212223
E
B
G
D
A
E
B
0 1 2 3 4 5 6 7 8 9 10 11 12 13 14 15 16 17 18 19 20 21 22 23
Song Science #1: How Pros Use 6 Chords to Write Hit Songs
(/) Slide Up  (\) Slide Down  (h) Hammer On  (p) Pull Off  (b) Bend (r) Release (v) Vibrato

Stave 1:

G|--------------------------------------------------------------------------------------------------
D|-----------------------------0--------------------------------------------------------------------
A|-----------0--2-----0--2--3-----3--2--0-----0--2--2--------2--2--------2--2--------2--2--------2--
E|--0--2--3--------3-----------------------3-----------0--0--------0--0--------0--0--------0--0-----

Stave 2:

G|---------------------------------------------
D|--0h2-----0h2-----0h2-----0--2---------------
A|-------0-------2-------3--------3/5--3/2-----
E|------------------------------------------3--

Stave 3:

G|--------------------------------------------
D|--------------------------------------------
A|--0h2-----0h2-----0h2-----0h2--2/5--3/5-----
E|-------0-------2-------3-----------------3--

Stave 4:

G|----------------------------------------------
D|--2h4-----2h4p2-----2h4-----2h4---------------
A|-------2---------4-------5-------5/7--5/4-----
E|-------------------------------------------5--

Stave 5:

G|----------------------------
D|----------------------------
A|--2h4-----2h4p2-----2h4-----
E|-------2---------4-------5--

Stave 6:

G|--------------------------------------
D|--2h4-----2h4p2-----2h4---------------
A|-------2---------4-------5/7--5/4-----
E|-----------------------------------5--

Stave 7:

G|----------------------------------------------
D|----------------------------------------------
A|--2h4-----2h4p2-----2h4-----2h4--5/7--5\4-----
E|-------2---------4-------5-----------------5--

Stave 8:

G|----------------------------------------------
D|--4h6-----4h6p4-----4h6-----4h6---------------
A|-------4---------6-------7-------7/9--7/6-----
E|-------------------------------------------7--

Stave 9:

G|----------------------------
D|----------------------------
A|--4h6-----4h6p4-----4h6-----
E|-------4---------6-------7--

Stave 10:

G|-----------------------------------------
D|--------------5--4h5p4---------7p5p4-----
A|---------5h7------------0h5h7---------7--
E|--0h5------------------------------------

Stave 11:

G|------------------------------------------
D|------------5--4p0h4h5----5/4p0h4\5/7--7--
A|-------5h7--------------------------------
E|--0h5-------------------------------------

http://www.guitartabcreator.com
Guitar Tab Creator is intended to store guitar tab created through the tool. It currently does not support in-line text editing. Any text you place in here will be lost. If you need to comment on your tab, please use the "Tab Notes" section located below.