Sound will begin in 5 seconds

Stoner

01234567891011121314151617181920212223
E
B
G
D
A
E
B
0 1 2 3 4 5 6 7 8 9 10 11 12 13 14 15 16 17 18 19 20 21 22 23
Song Science #1: How Pros Use 6 Chords to Write Hit Songs
(/) Slide Up  (\) Slide Down  (h) Hammer On  (p) Pull Off  (b) Bend (r) Release (v) Vibrato

Stave 1:

E|-----------------------------------------------------------
B|-----------------------------------------------------------
G|-----------------------------------------------------------
D|-----------------------------------------------------------
A|-----------0-----2-----4--2--0--2-----------0-----0--------
E|--4--2--4-----4-----4--------------4--2--4-----4-----4--2--

Stave 2:

E|------------------------------------------------------------------------------------
B|------------------------------------------------------------------------------------
G|------------------------------------------------------------------------------------
D|------------------------------------------------------------------------------------
A|------------------------------------------------------------------------------------
E|--4--2--4--7------4--2--4--7--4--4--2--4--7--4--4--2--4--2--4--7--4--2--4/11--10\2--

Stave 3:

E|--------------
B|--------------
G|--------------
D|--------------
A|--------------
E|--2--------3--

Stave 4:

E|--------------------------------------------------------------------------------------------
B|--------------------------------------------------------------------------------------------
G|--------------------------------------------------------------------------------------------
D|-----------------------5h7p5----------------------------------------------------5h7p5-------
A|------------------------------7-------------------------------------------------------------
E|--5h7----7--5--5h7--7------------5h7--7--5--5h7--7/12--------5h7--7--5--5h7--7---------7----

Stave 5:

E|--------------------------
B|--------------------------
G|--------------------------
D|--5h7--5------------------
A|----------7--5--4h5p4-----
E|-----------------------5--

Stave 6:

E|--------------------------------------------------------------
B|--------------------------------------------------------------
G|--------------------------------------------------------------
D|---------------------5h7p5------------------------------------
A|----------------------------7---------------------------------
E|--5/7--7--5--5/7--7------------5/7--7----4h5--5--5--4h5p4--0--

Stave 7:

E|-----------------------------------------------------------------
B|-----------------------------------------------------------------
G|-----------------------------------------------------------------
D|-------------------------------------------------------5h7--5h7--
A|-------5----5/4--------3--2---------------5----5/4---------------
E|--5h7------------5--5--------3------5--7------------5------------

Stave 8:

E|------------------------------------------
B|------------------------------------------
G|------------------------------------------
D|------------------------------------------
A|------------------------------------------
E|--3--2--10--9--9--9--9--9--9--9--9--9--9--

http://www.guitartabcreator.com
Guitar Tab Creator is intended to store guitar tab created through the tool. It currently does not support in-line text editing. Any text you place in here will be lost. If you need to comment on your tab, please use the "Tab Notes" section located below.