Sound will begin in 5 seconds

Raven

01234567891011121314151617181920212223
E
B
G
D
A
E
B
0 1 2 3 4 5 6 7 8 9 10 11 12 13 14 15 16 17 18 19 20 21 22 23
Song Science #1: How Pros Use 6 Chords to Write Hit Songs
(/) Slide Up  (\) Slide Down  (h) Hammer On  (p) Pull Off  (b) Bend (r) Release (v) Vibrato

Stave 1:

G|-------------------------------------------------------------------------------------------------
D|-------------------------------------------------------------------------------------------------
A|-------------------------------------------------------------------------------------------------
D|--3--3----3--3--3--3--3--3--3/1--1--1--1--6--6--6\3----3--3--3--3--3--3--3--3\1----1--1--1--1----

Stave 2:

G|-------------
D|-------------
A|-------------
D|--5--5--5\3--

Stave 3:

G|-----------------------------------------------------------------------------------------------
D|-----------------------------------------------------------------------------------------------
A|-----------------------------------------------------------------------------------------------
D|--5--5--5--5--5--0--3--6--6--6--6--6--0--3--5--5--5--5--5--0--3--6--6--6--6----11--11--11--11--

Stave 4:

G|------------------------------------------------------------
D|------------------------------------------------------------
A|------------------------------------------------10----------
D|--0--0--0--10--12--10--3--3--3--3/10p0--10--12------12--10--

Stave 5:

G|-------------------------------------------------
D|-------------------------------------------------
A|------------------------------------------0h3h5--
D|--0--0--0--10--12--10--3--3--3--3--0h3h5---------

Stave 6:

G|--------------------------------------------
D|--------------------------------------------
A|--------------------------------------------
D|--5--6--5--6--5--5--5--6--5--6--6--5--5--5--

Stave 7:

G|-------------------------------------------------------------------------------------
D|-------------------------------------------------------------------------------------
A|-----------------0h3h5---------------0h3h5---------------0h3h5-----------------------
D|--0--0----0h3h5---------3--3--0h3h5---------5--5--0h3h5---------6--5--3--5--3--3--3--

Stave 8:

G|---------------------------------------------------------
D|---------------------------------------------------------
A|---------------------------------------------------------
D|--6--5--3--6--5--3--3--6--5--3--6--5--3--3--0------------

Stave 9:

G|---------------------------------------------------------------------------
D|---------------------------------------------------------------------------
A|---------------------------------------------------------------------------
D|--0------------3--2----------3--2--3--2--3--2--0------------/12--------/3--

Stave 10:

G|---------------------------------------------------------------------------
D|---------------------------------------------------------------------------
A|---------------------------------------------------------------------------
D|--3--2--0--3--2--0----------------/12--------\3----------3--2--0--3--2--0--

http://www.guitartabcreator.com
Guitar Tab Creator is intended to store guitar tab created through the tool. It currently does not support in-line text editing. Any text you place in here will be lost. If you need to comment on your tab, please use the "Tab Notes" section located below.