Sound will begin in 5 seconds

Afropop

01234567891011121314151617181920212223
E
B
G
D
A
E
B
0 1 2 3 4 5 6 7 8 9 10 11 12 13 14 15 16 17 18 19 20 21 22 23
Song Science #1: How Pros Use 6 Chords to Write Hit Songs
(/) Slide Up  (\) Slide Down  (h) Hammer On  (p) Pull Off  (b) Bend (r) Release (v) Vibrato

Stave 1:

G|----------------------------------6--9--------------------------------------
D|--------------4--7-------6--9--7--------------------4--7--9--7--6--7--6-----
A|-----4--7--5----------7--------------------4--7--5-----------------------7--
E|--5-------------------------------------5-----------------------------------

Stave 2:

G|----------------------------------6--9-----------------------------6--------
D|--------------4--7-------6--9--7--------------------4--7--9--7--6-----7--7--
A|-----4--7--5----------7--------------------4--7--5--------------------------
E|--5-------------------------------------5-----------------------------------

Stave 3:

G|--4--1-----4--1-------6--------6--------4--1-----4--1-------------------6--9--6--
D|--------2--------2-------7--------7-----------2--------2-------------7-----------
A|----------------------------7--------7-------------------------4--7--------------
E|------------------------------------------------------------5--------------------

Stave 4:

G|--4--1-----4--1---------------------
D|--------2--------2---------------7--
A|---------------------------4--7-----
E|------------------------5-----------

Stave 5:

G|-----------------------------------------------------------------------------------------------------------------------------------------------
D|--------------------2--2--2-----------------------------2--2--2--4--2--------------------------2--2--2--------------------------------------7--
A|--5--5--5--4--4--4-----------4--4--4--5--5--5--4--4--4-----------------4--2--5--5--5--4--4--4-----------4--4--4--5--5--5--4--4--4-----4--7-----
E|-----------------------------------------------------------------------------------------------------------------------------------5-----------

http://www.guitartabcreator.com
Guitar Tab Creator is intended to store guitar tab created through the tool. It currently does not support in-line text editing. Any text you place in here will be lost. If you need to comment on your tab, please use the "Tab Notes" section located below.