Sound will begin in 5 seconds

he who swallowed god bass tab

01234567891011121314151617181920212223
E
B
G
D
A
E
B
0 1 2 3 4 5 6 7 8 9 10 11 12 13 14 15 16 17 18 19 20 21 22 23
Song Science #1: How Pros Use 6 Chords to Write Hit Songs
(/) Slide Up  (\) Slide Down  (h) Hammer On  (p) Pull Off  (b) Bend (r) Release (v) Vibrato

Stave 1:

E|------------------------------------------------------------------------------------------------
B|------------------------------------------------------------------------------------------------
G|------------------------------------------------------------------------------------------------
D|-----9---------------------------------------------9--------------------------------------------
A|--9-----9---------------------------------------9-----------------------------------------------
E|-----------13--6--7-----0--0--2--3--2--3--5--7-----------0--0--2--3--2--3--5--7--2--2--2--2-----

Stave 2:

E|--------------------------------------------------------------------------------------------------------
B|--------------------------------------------------------------------------------------------------------
G|-----------------------------------------------------------------9--11--12--11--9-----------------------
D|-----------------------------------------------------------------------------------12--11--9--8--9--11--
A|--------------------------------------------------------------------------------------------------------
E|--3--2--3--3--------3--2--3--5--------5--3--0--2--------------------------------------------------------

Stave 3:

E|------------------------------------------------------------------------------------------------------
B|------------------------------------------------------------------------------------------------------
G|------------------------------------------------------------------------------------------------------
D|------------------------------------------------------------------------------------------------------
A|--10--------------------------------------------------------------------------------------------------
E|------12--10--9--10--9--7--9--7--6--3-----2-----2-----2--3-----3--5--------3--2--3--5--3--2--0--2-----

Stave 4:

E|--------------------------------------------------------------------------------------------------------
B|--------------------------------------------------------------------------------------------------------
G|----------------------------------10------11------10------13------11------10------10h11p10--------------
D|--------------------------11--11------11------11------11------11------11------11------------------------
A|--------------------------------------------------------------------------------------------9-----9--9--
E|--------------------------------------------------------------------------------------------------------

Stave 5:

E|------------------------------------------------------------------------
B|------------------------------------------------------------------------
G|------------------------------------------------------------------------
D|--------------------------------------------------------------------11--
A|-----9--9--9--8-----8--8-----8--8--8--13-----13--13-----13--13--13------
E|------------------------------------------------------------------------

Stave 6:

E|------------------------------
B|------------------------------
G|------------------------------
D|-----12-----11-----12-----11--
A|--9------9------9------9------
E|------------------------------

http://www.guitartabcreator.com
Guitar Tab Creator is intended to store guitar tab created through the tool. It currently does not support in-line text editing. Any text you place in here will be lost. If you need to comment on your tab, please use the "Tab Notes" section located below.