Sound will begin in 5 seconds

Yes & No - Bass (Dem)

01234567891011121314151617181920212223
E
B
G
D
A
E
B
0 1 2 3 4 5 6 7 8 9 10 11 12 13 14 15 16 17 18 19 20 21 22 23
Song Science #1: How Pros Use 6 Chords to Write Hit Songs
(/) Slide Up  (\) Slide Down  (h) Hammer On  (p) Pull Off  (b) Bend (r) Release (v) Vibrato

Stave 1:

E|-------------------------------------|-------------------------------------|--
B|-------------------------------------|-------------------------------------|--
G|-------------------------------------|-------------------------------------|--
D|-------------------------------------|--------9--7-------------------------|--
A|------------------7----7--7----------|--------------9/11--9--7-------7-----|--
E|----5----5--7--9-------------0--3/5--|--5--5--------------------7/9-----9--|--

Stave 2:

E|--------------------------------------|------------------------------------|----------------------|--
B|--------------------------------------|------------------------------------|----------------------|--
G|--------------------------------------|------------------------------------|----------------------|--
D|--------------------------------2--4--|----------------------------5-------|-------------7--9--7--|--
A|--------------------------2--4--------|-----------------------4/6-----6--4\|--7v------9-----------|--
E|--5--5--0--5--0--2--2--0--------------|--5--5--0--2--0--2--2---------------|------9v--------------|--

Stave 3:

E|------------------------------------------------|--
B|------------------------------------------------|--
G|------------------------------------------------|--
D|--------7/9--7----------------------------------|--
A|-----7----------9/11--9--7-------7-----10v--9v--|--
E|--5-------------------------7/9-----9-----------|--

Stave 4:

E|-----------------------------------------------------------------------------------------------------|--
B|-----------------------------------------------------------------------------------------------------|--
G|-----------------------------------------------------------------------------------------------------|--
D|--------9--7-----------------------------------------14--12------------------------------------------|--
A|-----7--------11--9--7-----7---------------------12----------16--14--12------12----------------------|--
E|--5---------------------9-----9--8--8v--7--7/10--------------------------14------14--13--13v--0--12--|--

http://www.guitartabcreator.com
Guitar Tab Creator is intended to store guitar tab created through the tool. It currently does not support in-line text editing. Any text you place in here will be lost. If you need to comment on your tab, please use the "Tab Notes" section located below.