Sound will begin in 5 seconds

RAT

01234567891011121314151617181920212223
E
B
G
D
A
E
B
0 1 2 3 4 5 6 7 8 9 10 11 12 13 14 15 16 17 18 19 20 21 22 23
Song Science #1: How Pros Use 6 Chords to Write Hit Songs
(/) Slide Up  (\) Slide Down  (h) Hammer On  (p) Pull Off  (b) Bend (r) Release (v) Vibrato

Stave 1:

E|---------------------------------|--
B|---------------------------------|--
G|---------------------------------|--
D|---------------------------------|--
A|--12-----12--10--12--------------|--
E|---------------------12--10--12--|--

Stave 2:

E|--------------------------------------------------------------|--
B|--------------------------------------------------------------|--
G|--------------------------------------------------------------|--
D|-----------------------5--7--9--------9--9--9--9--9--9--9--9--|--
A|--------------4--5--7-----------7-----------------------------|--
E|--3-----3--5--------------------------------------------------|--

Stave 3:

E|---------------------------------------------|--------------------------------------------------------
B|---------------------------------------------|--------------------------------------------------------
G|---------------------------------------------|--------------------------------------------------------
D|---------------------------------------------|----------------------------------------------------12--
A|--12--12--12--12--12--12--12--14v-------14v--|--12--12--12--12--12--12--12--14-------14-------10------
E|-----------------------------------12v-------|----------------------------------12v------12v----------

Stave 4:

E|--------------------------------------------------------------------------------------------------|--
B|--------------------------------------------------------------------------------------------------|--
G|--------------------------------------------------------------------------------------------------|--
D|-----------------------------------------5--7--9--------------9--9--9--9--------------9--9--9--9--|--
A|--------------------------------4--5--7-----------7--7--7--7--------------7--7--7--7--------------|--
E|--3--3--3--3--3--3--3--3--3--5--------------------------------------------------------------------|--

Stave 5:

E|-------------------------------------------------------
B|-------------------------------------------------------
G|-------------------------------------------------------
D|-------------------------------------------------------
A|------------------8v--8v--10v--10--10--10--10--10--10--
E|--3v--5v--6v--8v---------------------------------------

http://www.guitartabcreator.com
Guitar Tab Creator is intended to store guitar tab created through the tool. It currently does not support in-line text editing. Any text you place in here will be lost. If you need to comment on your tab, please use the "Tab Notes" section located below.