Sound will begin in 5 seconds

Mind Bend Rythm Guitar

Chords
01234567891011121314151617181920212223
E
B
G
D
A
E
B
0 1 2 3 4 5 6 7 8 9 10 11 12 13 14 15 16 17 18 19 20 21 22 23
Song Science #1: How Pros Use 6 Chords to Write Hit Songs
(/) Slide Up  (\) Slide Down  (h) Hammer On  (p) Pull Off  (b) Bend (r) Release (v) Vibrato

Stave 1:

E|------------------------------------
B|------------------------------------
G|--8--8--8--13--13--6------13--13--6--
D|------------------------------------
A|--6--6--6--11--11--4------11--11--4--
E|--7--7--7--12--12--5------12--12--5--

Stave 2:

E|----------------0------4--7--
B|----------------0------4--7--
G|----8--------3--1------4--8--
D|----------------2------6--9--
A|--6--------1-----2------------
E|--7-----2--------0------------

Stave 3:

E|-------------------------------------------
B|--4--4--------4--------------4--------4-----
G|--4-----4--------4--------------4--------4--
D|--6--------6-----------6-----------6--------
A|--7-----------------7-----7-----------------
E|-------------------------------------------

Stave 4:

E|--0--0-----7--|--
B|--0--0--9--7--|--
G|--8--6--8--8--|--
D|--x--x--9--9--|--
A|--6--4--7--9--|--
E|--7--5-----7--|--

http://www.guitartabcreator.com
Guitar Tab Creator is intended to store guitar tab created through the tool. It currently does not support in-line text editing. Any text you place in here will be lost. If you need to comment on your tab, please use the "Tab Notes" section located below.