Sound will begin in 5 seconds

Means To An End - Jimmie (Guitar 1)

01234567891011121314151617181920212223
E
B
G
D
A
E
B
0 1 2 3 4 5 6 7 8 9 10 11 12 13 14 15 16 17 18 19 20 21 22 23
Song Science #1: How Pros Use 6 Chords to Write Hit Songs
(/) Slide Up  (\) Slide Down  (h) Hammer On  (p) Pull Off  (b) Bend (r) Release (v) Vibrato

Stave 1:

E|-----------0-------------------0-----------|--
B|-----------------0----------4-----4--------|--
G|-----2-------------------4-----------4-----|--
D|--4-----4-----4-----4/6-----------------6--|--
A|-------------------------------------------|--
E|-------------------------------------------|--

Stave 2:

E|---------------|-----2--|--
B|--12-----------|--7--2--|--
G|--11--7-----6--|--6--2--|--
D|--12--7-----7--|--7--2--|--
A|--10--9-----7--|--5--4--|--
E|------7--10\5--|-----2--|--

Stave 3:

E|--------7-----------7-----------7-----------7-----|--
B|--7-----------7-----------7-----------7-----------|--
G|-----7-----7-----7-----7-----7-----7-----7-----7--|--
D|--------------------------------------------------|--
A|--------------------------------------------------|--
E|--------------------------------------------------|--

http://www.guitartabcreator.com
Guitar Tab Creator is intended to store guitar tab created through the tool. It currently does not support in-line text editing. Any text you place in here will be lost. If you need to comment on your tab, please use the "Tab Notes" section located below.