Skip to main content

SOIL

0 1 2 3 4 5 6 7 8 9 10 11 12 13 14 15 16 17 18 19 20 21 22 23
E
B
G
D
A
E
0 1 2 3 4 5 6 7 8 9 10 11 12 13 14 15 16 17 18 19 20 21 22 23
(/) Slide Up  (\) Slide Down  (h) Hammer On  (p) Pull Off  (b) Bend (r) Release (v) Vibrato

Intro alt 1

D|-----------------------
A|-----------------------
G|-----------------------
C|--5--4--0--4--5--4--0--
G|--0--0--5--5--7--5--5--
D|--5--5--7--7--0--0--7--

Intro alt 2

D|-----------------------
A|-----------------------
G|-----------------------
C|--5--4--0--4--5--2--0--
G|--0--0--2--2--7--5--2--
D|-----------------------

Intro 2

D|---------------------------
A|--7--8--10--12--12--10--7--
G|--7--9--11--12--12--11--7--
C|---------------------------
G|---------------------------
D|---------------------------

Riff 1

D|-----------------------
A|-----------------------
G|-----------------------
C|--5--4--0--5--4--0-----
G|--0--0--2--7--5--2-----
D|-----------------------

Stave 5:

D|--------------------
A|--------------------
G|--------------------
C|--------------------
G|--2--5--2--3--2-----
D|--0--7--0--5--3-----

Riff 3

D|-----------------------------------------------------------------------------------
A|-----------------------------------------------------------------------------------
G|-----------------------------------------------------------------------------------
C|-----------5-----4-----------9-----7-----------5-----4-----------9-----------------
G|--7--5--------------2--3-----7-----5--7--5--------------2--3-----7-----7--8--5--7--
D|--8--7--0-----0-----3--5--0-----0-----8--7--0-----0-----3--5--0-----0--------------

Break

D|-----------------
A|-----------------
G|-----------------
C|--5--0--5--4--0--
G|--0--2--7--5--2--
D|-----------------

Stick

D|-----------------------------
A|-----------------------------
G|-----------------------------
C|-----------------------------
G|--2--3--2--3--2--2--3--7--6--
D|--0--4--0--4--3--0--4--8--7--

							https://www.guitartabcreator.com
Instruments
{"strings":[[["_","_","_","_","_","_","_"],["_","_","_","_","_","_","_"],["_","_","_","_","_","_","_"],[5,4,0,4,5,4,0],[0,0,5,5,7,5,5],[5,5,7,7,0,0,7]],[[".","_","_","_","_","_","_"],[".","_","_","_","_","_","_"],[".","_","_","_","_","_","_"],[5,4,0,4,5,2,0],[0,0,2,2,7,5,2],[".","_","_","_","_","_","_"]],[[".","_","_","_","_","_","_"],[7,8,10,12,12,10,7],[7,9,11,12,12,11,7],[".","_","_","_","_","_","_"],[".","_","_","_","_","_","_"],[".","_","_","_","_","_","_"]],[[".",".",".",".",".",".","."],[".",".",".",".",".",".","."],[".",".",".",".",".",".","."],[5,4,0,5,4,0,"."],[0,0,2,7,5,2,"."],[".",".",".",".",".",".","."]],[[".","_","_","_","_","_"],[".","_","_","_","_","_"],[".","_","_","_","_","_"],[".","_","_","_","_","_"],[2,5,2,3,2,"_"],[0,7,0,5,3,"_"]],[[".","_","_","_","_","_","_","_","_","_","_","_","_","_","_","_","_","_","_","_","_","_","_","_","_","_","_"],[".","_","_","_","_","_","_","_","_","_","_","_","_","_","_","_","_","_","_","_","_","_","_","_","_","_","_"],[".","_","_","_","_","_","_","_","_","_","_","_","_","_","_","_","_","_","_","_","_","_","_","_","_","_","_"],[".","_","_",5,"_",4,"_","_","_",9,"_",7,"_","_","_",5,"_",4,"_","_","_",9,"_","_","_","_","_"],[7,5,"_","_","_","_",2,3,"_",7,"_",5,7,5,"_","_","_","_",2,3,"_",7,"_",7,8,5,7],[8,7,0,"_",0,"_",3,5,0,"_",0,"_",8,7,0,"_",0,"_",3,5,0,"_",0,"_","_","_","_"]],[[".","_","_","_","_"],[".","_","_","_","_"],[".","_","_","_","_"],[5,0,5,4,0],[0,2,7,5,2],[".","_","_","_","_"]],[[".","_","_","_","_","_","_","_","_"],[".","_","_","_","_","_","_","_","_"],[".","_","_","_","_","_","_","_","_"],[".","_","_","_","_","_","_","_","_"],[2,3,2,3,2,2,3,7,6],[0,4,0,4,3,0,4,8,7]]],"numberofstrings":6,"notes":["D","A","G","C","G","D","B"],"capo":0,"stringnotes":["D4","A3","G3","C3","G2","D2"],"comments":["Intro alt 1","Intro alt 2","Intro 2","Riff 1","Stave 5:","Riff 3","Break","Stick"],"timing":[["Q","Q","Q","Q","Q","Q","Q","Q"],["Q","Q","Q","Q","Q","Q","Q","Q"],null,[null,"Q","Q","Q","Q","Q","Q","Q"],["Q","Q","Q","Q","Q","Q"],["Q","Q","Q","Q","Q","Q","Q","Q","Q","Q","Q","Q","Q","Q","Q","Q","Q","Q","Q","Q","Q","Q","Q","Q","Q","Q","Q","Q"],["Q","Q","Q","Q","Q","Q"],["Q","Q","Q","Q","Q","Q","Q","Q","Q","Q"]],"timingvisible":false,"tabcounter":6,"stave":4,"totalstaves":8,"instrument":"6guitar","selectedtuning":"6_standard","version":"13"}
Submitted by HoboRec on