Sound will begin in 5 seconds

Scales for mersol F7 Bb7 C7 Fminor(Dorian) Db7 Dminor(dorian)

01234567891011121314151617181920212223
E
B
G
D
A
E
B
0 1 2 3 4 5 6 7 8 9 10 11 12 13 14 15 16 17 18 19 20 21 22 23
Song Science #1: How Pros Use 6 Chords to Write Hit Songs
(/) Slide Up  (\) Slide Down  (h) Hammer On  (p) Pull Off  (b) Bend (r) Release (v) Vibrato

Stave 1:

E|--
B|--
G|--
D|--
A|--
E|--

Stave 2:

E|--------------------------------
B|-----------------------------8--
G|-------------------7--8--10-----
D|---------7--8--10---------------
A|--8--10-------------------------
E|--------------------------------

Stave 3:

E|-----------------------------
B|-----------------------------
G|--------------------------5--
D|-----------------5--6--8-----
A|--------5--6--8--------------
E|--6--8-----------------------

Stave 4:

E|--------------------------------
B|--------------------------------
G|-----------------------------7--
D|-------------------7--8--10-----
A|---------7--8--10---------------
E|--8--10-------------------------

Stave 5:

E|--------------------------------------
B|--------------------------------------
G|----------------------------------12--
D|----------------------12--13--15------
A|--------------13--15------------------
E|--13--15--16--------------------------

Stave 6:

E|--------------------------------
B|--------------------------------
G|-----------------------------8--
D|-------------------8--9--11-----
A|---------8--9--11---------------
E|--9--11-------------------------

Stave 7:

E|------------------------------------
B|------------------------------------
G|---------------------------------9--
D|----------------------9--10--12-----
A|--------------10--12----------------
E|--10--12--13------------------------

http://www.guitartabcreator.com
Guitar Tab Creator is intended to store guitar tab created through the tool. It currently does not support in-line text editing. Any text you place in here will be lost. If you need to comment on your tab, please use the "Tab Notes" section located below.