Sound will begin in 5 seconds

Licks to steal

01234567891011121314151617181920212223
E
B
G
D
A
E
B
0 1 2 3 4 5 6 7 8 9 10 11 12 13 14 15 16 17 18 19 20 21 22 23
Song Science #1: How Pros Use 6 Chords to Write Hit Songs
(/) Slide Up  (\) Slide Down  (h) Hammer On  (p) Pull Off  (b) Bend (r) Release (v) Vibrato

Stave 1:

E|---------------------|---------------10---8-|-------------|-------6---------
B|--------8--12-10-8---|---8h10p8-------------|-------------|-----3---7-6-----
G|------9------------9-|-7--------9-11----9---|-7-----5-4---|---4---------8-7-
D|-9-10----------------|----------------------|---4-5-----4-|-5---------------
A|---------------------|----------------------|-------------|-----------------
E|---------------------|----------------------|-------------|-----------------

Stave 2:

E|-----------------8----|---------------------|--------------|--------|-
B|----------7-8-11---11-|-8-7-----------------|--------------|-10-8---|-
G|-----8-10-------------|-----10-8------------|----7---------|------8-|-
D|--10------------------|----------10----8-10-|-10---10-8-10-|--------|-
A|----------------------|-------------10------|--------------|--------|-
E|----------------------|---------------------|--------------|--------|-

Stave 3:

E|--
B|--
G|--
D|--
A|--
E|--

Stave 4:

E|--
B|--
G|--
D|--
A|--
E|--

Stave 5:

E|--
B|--
G|--
D|--
A|--
E|--

Stave 6:

E|--
B|--
G|--
D|--
A|--
E|--

Stave 7:

E|--
B|--
G|--
D|--
A|--
E|--

Stave 8:

E|--
B|--
G|--
D|--
A|--
E|--

Stave 9:

E|--
B|--
G|--
D|--
A|--
E|--

Stave 10:

E|--
B|--
G|--
D|--
A|--
E|--

Stave 11:

E|--
B|--
G|--
D|--
A|--
E|--

Stave 12:

E|--
B|--
G|--
D|--
A|--
E|--

Stave 13:

E|--
B|--
G|--
D|--
A|--
E|--

Stave 14:

E|--
B|--
G|--
D|--
A|--
E|--

Stave 15:

E|--
B|--
G|--
D|--
A|--
E|--

Stave 16:

E|--
B|--
G|--
D|--
A|--
E|--

Stave 17:

E|--
B|--
G|--
D|--
A|--
E|--

Stave 18:

E|--
B|--
G|--
D|--
A|--
E|--

Stave 19:

E|--
B|--
G|--
D|--
A|--
E|--

Stave 20:

E|--
B|--
G|--
D|--
A|--
E|--

Stave 21:

E|--
B|--
G|--
D|--
A|--
E|--

Stave 22:

E|--
B|--
G|--
D|--
A|--
E|--

Stave 23:

E|--
B|--
G|--
D|--
A|--
E|--

Stave 24:

E|--
B|--
G|--
D|--
A|--
E|--

Stave 25:

E|--
B|--
G|--
D|--
A|--
E|--

Stave 26:

E|--
B|--
G|--
D|--
A|--
E|--

Stave 27:

E|--
B|--
G|--
D|--
A|--
E|--

Stave 28:

E|--
B|--
G|--
D|--
A|--
E|--

Stave 29:

E|--
B|--
G|--
D|--
A|--
E|--

Stave 30:

E|--
B|--
G|--
D|--
A|--
E|--

Stave 31:

E|--
B|--
G|--
D|--
A|--
E|--

Stave 32:

E|--
B|--
G|--
D|--
A|--
E|--

Stave 33:

E|--
B|--
G|--
D|--
A|--
E|--

Stave 34:

E|--
B|--
G|--
D|--
A|--
E|--

Stave 35:

E|--
B|--
G|--
D|--
A|--
E|--

Stave 36:

E|--
B|--
G|--
D|--
A|--
E|--

Stave 37:

E|--
B|--
G|--
D|--
A|--
E|--

Stave 38:

E|--
B|--
G|--
D|--
A|--
E|--

Stave 39:

E|--
B|--
G|--
D|--
A|--
E|--

Stave 40:

E|--
B|--
G|--
D|--
A|--
E|--

http://www.guitartabcreator.com
Guitar Tab Creator is intended to store guitar tab created through the tool. It currently does not support in-line text editing. Any text you place in here will be lost. If you need to comment on your tab, please use the "Tab Notes" section located below.