Sound will begin in 5 seconds

I Wonder (Real One)

Chords
01234567891011121314151617181920212223
E
B
G
D
A
E
B
0 1 2 3 4 5 6 7 8 9 10 11 12 13 14 15 16 17 18 19 20 21 22 23
Song Science #1: How Pros Use 6 Chords to Write Hit Songs
(/) Slide Up  (\) Slide Down  (h) Hammer On  (p) Pull Off  (b) Bend (r) Release (v) Vibrato

Stave 1:

E|--
B|--
G|--
D|--
A|--
E|--

Stave 2:

E|--------------0--------------------0--------------------0--------------------3--------
B|--------6--------6-----------6--------6-----------6--------6-----------6--------6-----
G|-----5-----5--------5-----5-----5--------5-----5-----5--------5-----5-----5--------5--
D|--0-----------------------------------------3-----------------------------------------
A|-----------------------------------------------------------------3--------------------
E|-----------------------6--------------------------------------------------------------

Stave 3:

E|-----------------------------------------------------------------------------------------------
B|------3--5--6------5--6--8-----------------------3--5--6-----------5h6h8------10h11v--13--10v--
G|---------------5v-----------7v----------------------------5v--5h7---------7v-------------------
D|--5v----------------------------7p5-----------5------------------------------------------------
A|-------------------------------------7p5\3h5---------------------------------------------------
E|-----------------------------------------------------------------------------------------------

Stave 4:

E|-------------------------------
B|----------10b11--10b11r10------
G|--10---------------------------
D|------10-------------------10--
A|-------------------------------
E|-------------------------------

Stave 5:

E|-------------------------------------
B|-------------------------------------
G|--7--9--5--7--9--10--12--14--12--12--
D|-------------------------------------
A|--5--7--3--5--7--8---10--12--10--10--
E|-------------------------------------

Stave 6:

E|--
B|--
G|--
D|--
A|--
E|--

Stave 7:

E|--
B|--
G|--
D|--
A|--
E|--

Stave 8:

E|--
B|--
G|--
D|--
A|--
E|--

Stave 9:

E|--
B|--
G|--
D|--
A|--
E|--

Stave 10:

E|--
B|--
G|--
D|--
A|--
E|--

Stave 11:

E|--
B|--
G|--
D|--
A|--
E|--

Stave 12:

E|--
B|--
G|--
D|--
A|--
E|--

Stave 13:

E|--
B|--
G|--
D|--
A|--
E|--

Stave 14:

E|--
B|--
G|--
D|--
A|--
E|--

Stave 15:

E|--
B|--
G|--
D|--
A|--
E|--

Stave 16:

E|--
B|--
G|--
D|--
A|--
E|--

Stave 17:

E|--
B|--
G|--
D|--
A|--
E|--

Stave 18:

E|--
B|--
G|--
D|--
A|--
E|--

Stave 19:

E|--
B|--
G|--
D|--
A|--
E|--

Stave 20:

E|--
B|--
G|--
D|--
A|--
E|--

Stave 21:

E|--
B|--
G|--
D|--
A|--
E|--

Stave 22:

E|--
B|--
G|--
D|--
A|--
E|--

Stave 23:

E|--
B|--
G|--
D|--
A|--
E|--

Stave 24:

E|--
B|--
G|--
D|--
A|--
E|--

Stave 25:

E|--
B|--
G|--
D|--
A|--
E|--

http://www.guitartabcreator.com
Guitar Tab Creator is intended to store guitar tab created through the tool. It currently does not support in-line text editing. Any text you place in here will be lost. If you need to comment on your tab, please use the "Tab Notes" section located below.