Sound will begin in 5 seconds

Blues in F

01234567891011121314151617181920212223
E
B
G
D
A
E
B
0 1 2 3 4 5 6 7 8 9 10 11 12 13 14 15 16 17 18 19 20 21 22 23
Song Science #1: How Pros Use 6 Chords to Write Hit Songs
(/) Slide Up  (\) Slide Down  (h) Hammer On  (p) Pull Off  (b) Bend (r) Release (v) Vibrato

Stave 1:

E|------------------------------4----------------------4--6--7/8--11--6h7p6p4----------------------------
B|-------4--6-----4h6-----4--6-----6--4-------------6--------------------------6--4----------------------
G|----5--------5-------5-----------------5\1-----------------------------------------5--3-----1h2--------
D|--------------------------------------------3--1-----------------------------------------3----------0--
A|-------------------------------------------------------------------------------------------------3-----
E|-------------------------------------------------------------------------------------------------------

Stave 2:

E|-------------------10--8--------------------------------12--10--8------------------------------------------
B|----------------7---------10--11-----10h11p10p8--------------------11--10--8--6--5-------------------------
G|-------5--7--8--------------------7--------------10--9------------------------------7--6--5----------------
D|----8----------------------------------------------------------------------------------------6h7-----------
A|--------------------------------------------------------------------------------------------------8--6--5--
E|-----------------------------------------------------------------------------------------------------------

Stave 3:

E|--------------------------------------------------------------------------------------------------8--10--13--10--
B|-----------8--10--9--10----------------8--9--8--9----------------8--10--9--10-------------10--11-----------------
G|----7--10----------------10--8--7--10--------------10--7--7--10----------------10------7-------------------------
D|-----------------------------------------------------------------------------------10----------------------------
A|-----------------------------------------------------------------------------------------------------------------
E|-----------------------------------------------------------------------------------------------------------------

Stave 4:

E|----------8----------------------------10--13--13---------10--13--13--13--10-----9/10--8h10p8----------------------
B|----9/10-----8------8--10------10------------------10--6----------------------6----------------9p8h9p8p6--6--------
G|----------------10-------------------------------------------------------------------------------------------7--7--
D|---------------------------10------10------------------------------------------------------------------------------
A|-------------------------------------------------------------------------------------------------------------------
E|-------------------------------------------------------------------------------------------------------------------

Stave 5:

E|----
B|----
G|----
D|----
A|----
E|----

Stave 6:

E|----
B|----
G|----
D|----
A|----
E|----

Stave 7:

E|----
B|----
G|----
D|----
A|----
E|----

Stave 8:

E|----
B|----
G|----
D|----
A|----
E|----

Stave 9:

E|----
B|----
G|----
D|----
A|----
E|----

Stave 10:

E|----
B|----
G|----
D|----
A|----
E|----

Stave 11:

E|----
B|----
G|----
D|----
A|----
E|----

Stave 12:

E|----
B|----
G|----
D|----
A|----
E|----

Stave 13:

E|----
B|----
G|----
D|----
A|----
E|----

Stave 14:

E|----
B|----
G|----
D|----
A|----
E|----

Stave 15:

E|----
B|----
G|----
D|----
A|----
E|----

Stave 16:

E|----
B|----
G|----
D|----
A|----
E|----

Stave 17:

E|----
B|----
G|----
D|----
A|----
E|----

Stave 18:

E|-------------------------
B|-----------8-------------
G|----7--10-----7--10------
D|---------------------10--
A|-------------------------
E|-------------------------

http://www.guitartabcreator.com
Guitar Tab Creator is intended to store guitar tab created through the tool. It currently does not support in-line text editing. Any text you place in here will be lost. If you need to comment on your tab, please use the "Tab Notes" section located below.