Sound will begin in 5 seconds

GLIDE

Chords
01234567891011121314151617181920212223
E
B
G
D
A
E
B
0 1 2 3 4 5 6 7 8 9 10 11 12 13 14 15 16 17 18 19 20 21 22 23
Song Science #1: How Pros Use 6 Chords to Write Hit Songs
(/) Slide Up  (\) Slide Down  (h) Hammer On  (p) Pull Off  (b) Bend (r) Release (v) Vibrato

Stave 1:

E|---v--0h3------v--0h7------v--0h3------v--0h7--------0h2--3------------------
B|-------------------------------------------------------------3/2--0--3/5--5--
G|-----------------------------------------------------------------------------
D|-----------------------------------------------------------------------------
A|-----------------------------------------------------------------------------
E|--0-----------0-----------0-----------0-----------0--------------------------

Stave 2:

E|-----0--0h2--2/3--3--3/7--7--7--0-----5--------0--0h2--2/3--3--3/7--7--7--0-----5-----
B|-----------------------------------0-----7-----------------------------------0-----7--
G|--------------------------------------------------------------------------------------
D|--------------------------------------------------------------------------------------
A|--------------------------------------------------------------------------------------
E|--0-----------------------------------------0-----------------------------------------

Stave 3:

E|-----0h3-----3/12-----12--12--------0h3-----3/12-----12--12--
B|-------------------------------------------------------------
G|-------------------------------------------------------------
D|-------------------------------------------------------------
A|-------------------------------------------------------------
E|--0-------0--------0-------------0-------0--------0----------

Stave 4:

E|-----0h2-----3-----5-----3-----2--2--2--2--3--2-----0h2-----3-----7-----5-----7--8--7--5/3-----------
B|----------0-----0-----0-----0-----0--0--0----------------0-----0-----0-----0-------------------------
G|----------------------------------0--0--0------------------------------------------------------------
D|-----------------------------------------------------------------------------------------------2--2--
A|-----------------------------------------------------------------------------------------------2--2--
E|--0----------------------------------------------0------------------------------------------0--0--0--

Stave 5:

E|--7-----0--7-----0--7-----7-----0--7-----0--7-----------------
B|-----0--------0--------0-----0--------0--------0--------------
G|--------------------------------------------------------------
D|--------------------------------------------------8--7--5-----
A|--------------------------------------------------------------
E|--------------------------------------------------------------

Stave 6:

E|--0-----------------0------------------------------------0--------
B|--0-----------------0------------------------------------0--------
G|--0-----------------0------------------------------------0--------
D|--2--2--2-----------2--2--2------------------------------2--2--2--
A|--2--2--2-----------2--2--2------------------------------2--2--2--
E|--0--0--0--0--12/0--0--0--0--0--12/0--0--12/0--0--12--0--0--0--0--

Stave 7:

E|-------------------------------------------------------
B|-------------------------------------------------------
G|-------------------------------------------------------
D|-------------------------------------------------------
A|--7--7/9--9/10--10--10/14--14--14-----------12---------
E|-----------------------------------12/2--0------14--0--

http://www.guitartabcreator.com
Guitar Tab Creator is intended to store guitar tab created through the tool. It currently does not support in-line text editing. Any text you place in here will be lost. If you need to comment on your tab, please use the "Tab Notes" section located below.