Sound will begin in 5 seconds

Black Dog Solo Harmony 1

01234567891011121314151617181920212223
E
B
G
D
A
E
B
0 1 2 3 4 5 6 7 8 9 10 11 12 13 14 15 16 17 18 19 20 21 22 23
Song Science #1: How Pros Use 6 Chords to Write Hit Songs
(/) Slide Up  (\) Slide Down  (h) Hammer On  (p) Pull Off  (b) Bend (r) Release (v) Vibrato

Stave 1:

E|----------------------------------
B|-------------------------------5--
G|-----------------2-----2--4/6-----
D|-----------2--4-----4-------------
A|--0--2--4-------------------------
E|----------------------------------

Stave 2:

E|------------------------------------------------
B|--3---------------------------------------------
G|-----5--4--2-----2h4-----------2----------5--7--
D|--------------4-------------------2--5/7--------
A|------------------------------------------------
E|------------------------------------------------

Stave 3:

E|----------5-------
B|-------5-----8p5--
G|--7b8-------------
D|------------------
A|------------------
E|------------------

Stave 4:

E|--------------------------
B|--------------5-----------
G|--7--5--6--7-----7--6--5--
D|--------------------------
A|--------------------------
E|--------------------------

Stave 5:

E|--------------------------------------------------------------------------
B|--------------------------------------------------------------------------
G|-----------5-----------5-----------7--------------------5--------------7--
D|--5--6--7-----5--6--7-----5--6--7-----5--6--7--7--5--7--------7--5--7-----
A|--------------------------------------------------------------------------
E|--------------------------------------------------------------------------

Stave 6:

E|----------------------------------------------------------------------
B|-------8-----------------------------------------------------------5--
G|--7/9-----9p7--5--7--------7-------------------------2-----2--4/6-----
D|---------------------5--------4----------------2--4-----4-------------
A|------------------------------------5\0--2--4-------------------------
E|----------------------------------------------------------------------

http://www.guitartabcreator.com
Guitar Tab Creator is intended to store guitar tab created through the tool. It currently does not support in-line text editing. Any text you place in here will be lost. If you need to comment on your tab, please use the "Tab Notes" section located below.