Sound will begin in 5 seconds

BTS-Spring Day

Chords
01234567891011121314151617181920212223
E
B
G
D
A
E
B
0 1 2 3 4 5 6 7 8 9 10 11 12 13 14 15 16 17 18 19 20 21 22 23
(/) Slide Up  (\) Slide Down  (h) Hammer On  (p) Pull Off  (b) Bend (r) Release (v) Vibrato

Capo Fret 3

Stave 1:

E|----------------------------------------------------------------------------------------------------
B|----------------------------------------------------------------------------------------------------
G|----------------------------------------------------------------------------------------------------
D|--5--8---10--3--5--8---10--3-----3-----------3------------------3--3-----3--------------------------
A|--6--10--10--3--6--10--10--3--6-----6--6--6-----10--10--10--10--------6-----6--6--------10--10--10--
E|--6--10--11--4--6--10--11--4------------------------------------------------------4--4--------------

Stave 2:

E|-------------------------------------------------------------------------------------------------------
B|-------------------------------------------------------------------------------------------------------
G|-------------------------------------------------------------------------------------------------------
D|----------3--3-----3-----------------3-----------------3-----------------3-----------------------------
A|--10--10--------6-----6--6--6--6--6-----6--6--6--6--6-----6--6--6--6--6-----6--6--10--10--10--3--3--3--
E|-------------------------------------------------------------------------------------------------------

Stave 3:

E|-----------------------------------------------------------------------------------------------------
B|-----------------------------------------------------------------------------------------------------
G|-------------------------------------------8--12--8--8--8--8--7-----10--8--7--8-----10--8--7--8--10--
D|---------------------3--3--3---------3---------------------------8---------------8-------------------
A|--10--10--10--10--6-----------10--6-----6------------------------------------------------------------
E|-----------------------------------------------------------------------------------------------------

Stave 4:

E|----------------------------------------------------------------------------------------------------
B|----------------------------------------------------------------------------------------------------
G|--8--12--8--8--8--8--10--8------8--10--12--12--12--12--13--12--10--10--8--10--8--8--12--12--12--12--
D|----------------------------10----------------------------------------------------------------------
A|----------------------------------------------------------------------------------------------------
E|----------------------------------------------------------------------------------------------------

Stave 5:

E|----------------------------------------------------------------------------------------------------
B|----------------------------------------------------------------------------------------------------
G|--10--10--8--8--12--12--12--12--10--10--8--8-----12--8--8--7---------10--10-----12--10--8--8--7-----
D|----------------------------------------------8------------------------------8----------------------
A|-----------------------------------------------------------------10---------------------------------
E|--------------------------------------------------------------6----------------------------------6--

Stave 6:

E|----------------------------------------------------------------------------------------------------
B|----------------------------------------------------------------------------------------------------
G|------8--12--12--12--12--8--10--8--8--12--12--12--12--10--10--8--8-----12--8--8--7---------8--8-----
D|--------------------------------------------------------------------8----------------------------8--
A|--10-----------------------------------------------------------------------------------10-----------
E|------------------------------------------------------------------------------------6---------------

Stave 7:

E|-------------------
B|-------------------
G|--12--10--8--8--7--
D|-------------------
A|-------------------
E|-------------------

http://www.guitartabcreator.com
Guitar Tab Creator is intended to store guitar tab created through the tool. It currently does not support in-line text editing. Any text you place in here will be lost. If you need to comment on your tab, please use the "Tab Notes" section located below.