Pienso en ella

01234567891011121314151617181920212223
E
B
G
D
A
E
B
0 1 2 3 4 5 6 7 8 9 10 11 12 13 14 15 16 17 18 19 20 21 22 23
(/) Slide Up  (\) Slide Down  (h) Hammer On  (p) Pull Off  (b) Bend (r) Release (v) Vibrato

Stave 1:

E|----------------------------12--9---9------12--9--10--9---7-----7--7--7-9------9---7--5-----5-----5--5--5-----5--5--
B|---------------------12-----14--10--10-----14--10-12--10--9-----9--9--9-10-----10--9--7-----7-----7--7--7-----7--7--
G|---------11--13--14-----------------_------------------------------------------------------------------------------
D|-----14-----------------------------_------------------------------------------------------------------------------
A|------------------------------------_------------------------------------------------------------------------------
E|------------------------------------_------------------------------------------------------------------------------

Stave 2:

E|--10-----10-12-----9---9------12--9--10--9---7-----7--7--7-9------9---7--5-----5-----5--5--5-----5--5--
B|--12-----12-14-----10--10-----14--10-12--10--9-----9--9--9-10-----10--9--7-----7-----7--7--7-----7--7--
G|-------------------------------------------------------------------------------------------------------
D|-------------------------------------------------------------------------------------------------------
A|-------------------------------------------------------------------------------------------------------
E|-------------------------------------------------------------------------------------------------------

Stave 3:

E|--------------------------------------------------------------------------------------
B|--------------------------------------------------------------------------------------
G|--9---6--6-----9---6-7--6--4-----4--4--4-6-----6--4--2-----2-----2--2--2-----2--2-----
D|--11--7--7-----11--7-9--7--6-----6--6--6-7-----7--6--4-----4-----4--4--4-----4--4-----
A|--------------------------------------------------------------------------------------
E|--------------------------------------------------------------------------------------

Stave 4:

E|----------------------------------------------------------------------------------------
B|----------------------------------------------------------------------------------------
G|--7--7-9---6--6-----9---6-7--6--4-----4--4--4-6-----6--4--2-----2-----2--2--2-----2--2--
D|--9--9-11--7--7-----11--7-9--7--6-----6--6--6-7-----7--6--4-----4-----4--4--4-----4--4--
A|----------------------------------------------------------------------------------------
E|----------------------------------------------------------------------------------------

Stave 5:

E|-------------------------
B|-------------------------
G|--4\6-----6-----6--------
D|-------6-----6-----------
A|-------------------9-----
E|-------------------------

							http://www.guitartabcreator.com
Chords

Instruments
{"strings":[[[".",".",".",".",".",".",".",12,9,9,".",12,9,"\\",10,9,7,".",7,7,7,"\\",9,".",9,7,5,".",5,".",5,5,5,".",5,5],[".",".",".",".",".",12,".",14,10,10,".",14,10,"\\",12,10,9,".",9,9,9,"\\",10,".",10,9,7,".",7,".",7,7,7,".",7,7],[".",".",11,13,14,".",".",".",".","_",".",".",".",".",".",".",".",".",".",".",".",".",".",".",".",".",".",".",".",".",".",".",".",".",".","."],[".",14,".",".",".",".",".",".",".","_",".",".",".",".",".",".",".",".",".",".",".",".",".",".",".",".",".",".",".",".",".",".",".",".",".","."],[".",".",".",".",".",".",".",".",".","_",".",".",".",".",".",".",".",".",".",".",".",".",".",".",".",".",".",".",".",".",".",".",".",".",".","."],[".",".",".",".",".",".",".",".",".","_",".",".",".",".",".",".",".",".",".",".",".",".",".",".",".",".",".",".",".",".",".",".",".",".",".","."]],[[10,".",10,"\\",12,".",9,9,".",12,9,"\\",10,9,7,".",7,7,7,"\\",9,".",9,7,5,".",5,".",5,5,5,".",5,5],[12,".",12,"\\",14,".",10,10,".",14,10,"\\",12,10,9,".",9,9,9,"\\",10,".",10,9,7,".",7,".",7,7,7,".",7,7],[".",".",".",".",".",".",".",".",".",".",".",".",".",".",".",".",".",".",".",".",".",".",".",".",".",".",".",".",".",".",".",".",".","."],[".",".",".",".",".",".",".",".",".",".",".",".",".",".",".",".",".",".",".",".",".",".",".",".",".",".",".",".",".",".",".",".",".","."],[".",".",".",".",".",".",".",".",".",".",".",".",".",".",".",".",".",".",".",".",".",".",".",".",".",".",".",".",".",".",".",".",".","."],[".",".",".",".",".",".",".",".",".",".",".",".",".",".",".",".",".",".",".",".",".",".",".",".",".",".",".",".",".",".",".",".",".","."]],[[".",".",".",".",".",".",".",".",".",".",".",".",".",".",".",".",".",".",".",".",".",".",".",".",".",".",".",".",".","."],[".",".",".",".",".",".",".",".",".",".",".",".",".",".",".",".",".",".",".",".",".",".",".",".",".",".",".",".",".","."],[9,6,6,".",9,6,"\\",7,6,4,".",4,4,4,"\\",6,".",6,4,2,".",2,".",2,2,2,".",2,2,"."],[11,7,7,".",11,7,"\\",9,7,6,".",6,6,6,"\\",7,".",7,6,4,".",4,".",4,4,4,".",4,4,"."],[".",".",".",".",".",".",".",".",".",".",".",".",".",".",".",".",".",".",".",".",".",".",".",".",".",".",".",".",".","."],[".",".",".",".",".",".",".",".",".",".",".",".",".",".",".",".",".",".",".",".",".",".",".",".",".",".",".",".",".","."]],[[".",".",".",".",".",".",".",".",".",".",".",".",".",".",".",".",".",".",".",".",".",".",".",".",".",".",".",".",".",".",".","."],[".",".",".",".",".",".",".",".",".",".",".",".",".",".",".",".",".",".",".",".",".",".",".",".",".",".",".",".",".",".",".","."],[7,7,"\\",9,6,6,".",9,6,"\\",7,6,4,".",4,4,4,"\\",6,".",6,4,2,".",2,".",2,2,2,".",2,2],[9,9,"\\",11,7,7,".",11,7,"\\",9,7,6,".",6,6,6,"\\",7,".",7,6,4,".",4,".",4,4,4,".",4,4],[".",".",".",".",".",".",".",".",".",".",".",".",".",".",".",".",".",".",".",".",".",".",".",".",".",".",".",".",".",".",".","."],[".",".",".",".",".",".",".",".",".",".",".",".",".",".",".",".",".",".",".",".",".",".",".",".",".",".",".",".",".",".",".","."]],[[".",".",".",".",".",".",".",".","."],[".",".",".",".",".",".",".",".","."],[4,"\\",6,".",6,".",6,".","."],[".",".",".",6,".",6,".",".","."],[".",".",".",".",".",".",".",9,"."],[".",".",".",".",".",".",".",".","."]]],"numberofstrings":6,"notes":["E","B","G","D","A","E","B"],"capo":0,"stringnotes":["E4","B3","G3","D3","A2","E2"],"comments":["Stave 1:","Stave 2:","Stave 3:","Stave 4:","Stave 5:"],"timing":[[null,null,"W","W","W","W","W",null,"W","W","W",null,"W","W","W","W","W","W",null,"W","W","W",null,"W",null,"W","W","W",null,"W",null,"W","W","W",null,"W","W"],[null,"W",null,"W","W","W",null,"W","W",null,"W","W",null,"W",null,"W","W","W","W","W","W","W",null,"W","W","W",null,"W",null,"W","W","W",null,"W","W"],[null,"W","W","W",null,"W","W",null,"W","W","W",null,"W","W","W",null,"W",null,"W","W","W",null,"W",null,"W","W","W",null,"W","W"],[null,"W","W",null,"W","W","W",null,"W","W",null,"W","W","W",null,"W","W","W","W","W",null,"W","W","W",null,"W",null,"W","W","W",null,"W","W"],[null,"W",null,"W","W","W","W","W",null,"W"]],"timingvisible":false,"tabcounter":9,"stave":0,"totalstaves":5,"instrument":"6guitar","selectedtuning":"6_standard","version":"13"}

Member for

3 years 2 months
Submitted by HikoLako on Fri, 2021-01-15 16:19