Sound will begin in 5 seconds

Servant

Chords
01234567891011121314151617181920212223
E
B
G
D
A
E
B
0 1 2 3 4 5 6 7 8 9 10 11 12 13 14 15 16 17 18 19 20 21 22 23
Song Science #1: How Pros Use 6 Chords to Write Hit Songs
(/) Slide Up  (\) Slide Down  (h) Hammer On  (p) Pull Off  (b) Bend (r) Release (v) Vibrato

Stave 1:

E|-----------------------------------------------------------------------------------------------
B|-----------------------------------------------------------------------------------------------
G|--9--4--------------9--4--11--7--------11--12--9--4--------9--4--11--7--------11-----12-----4--
D|-----------------------------------------------------------------------------------------------
A|-----------------------------------------------------------------------------------------------
E|-----------------------------------------------------------------------------------------------

Stave 2:

E|--------------------------------------------------
B|--------------------------------------------------
G|--4--4--4--4--4--4--4--4--4--4--4--4--4--4--4--4--
D|--5--5--5--5--6--6--6--6--2--2--2--2--2--2--2--2--
A|--7--7--7--7--6--6--6--6--3--3--3--3--2--2--2--2--
E|--0--0--0--0--4--4--4--4--3--3--3--3--2--2--2--2--

Stave 3:

E|--------------------------------------------------
B|--0--0--0--0--0--0--0--0--0--0--0--0--0--0--0--0--
G|--2--2--2--2--8--8--8--8--7--7--7--7--9--9--9--9--
D|--------------------------------------------------
A|--------------------------------------------------
E|--------------------------------------------------

Stave 4:

E|----------------------------------------------------------
B|----------------------------------------------------------
G|--12--12--12--12--11--11--14--14--9--9--9--9--7--7--7--7--
D|----------------------------------------------------------
A|----------------------------------------------------------
E|----------------------------------------------------------

Stave 5:

E|------------------------------------------------------------
B|------------------------------------------------------------
G|--4--4--4--4--4--4--14--14--16--16--16--16--11--11--11--11--
D|------------------------------------------------------------
A|------------------------------------------------------------
E|------------------------------------------------------------

Stave 6:

E|--------------------------------------------------------------------------
B|--------------------------------------------------------------------------
G|--4--2--4-----4--2--4-----4--2--4-----4--8--4-----4--8--4-----4--8--4-----
D|--------------------------------------------------------------------------
A|--------------------------------------------------------------------------
E|--------------------------------------------------------------------------

Stave 7:

E|--------------------------------------------------------------------
B|--------------------------------------------------------------------
G|--7--4--7-----7--4--7-----7--4--7-----9-----4-----9-----4-----9--4--
D|--------------------------------------------------------------------
A|--------------------------------------------------------------------
E|--------------------------------------------------------------------

Stave 8:

E|----------------------------------------------------------------------------------------
B|----------------------------------------------------------------------------------------
G|----------------------------------------------------------------------------------------
D|--9-----10--9-----12--9-----14--7-----10-----5-----9-----10--9-----12--7-----14-----16--
A|--7-----8---7-----10--7-----12--5-----8------3-----7-----8---7-----10--5-----12-----14--
E|--7-----8---7-----10--7-----12--5-----8------3-----7-----8---7-----10--5-----12-----14--

Stave 9:

E|--------------------------------------------------
B|--2--2--2--2--4--4--4--4--5--5--5--5--9--9--9--9--
G|--------------------------------------------------
D|--------------------------------------------------
A|--------------------------------------------------
E|--------------------------------------------------

http://www.guitartabcreator.com
Guitar Tab Creator is intended to store guitar tab created through the tool. It currently does not support in-line text editing. Any text you place in here will be lost. If you need to comment on your tab, please use the "Tab Notes" section located below.