Sound will begin in 5 seconds

O.D.I.R.

Chords
01234567891011121314151617181920212223
E
B
G
D
A
E
B
0 1 2 3 4 5 6 7 8 9 10 11 12 13 14 15 16 17 18 19 20 21 22 23
Song Science #1: How Pros Use 6 Chords to Write Hit Songs
(/) Slide Up  (\) Slide Down  (h) Hammer On  (p) Pull Off  (b) Bend (r) Release (v) Vibrato

Stave 1:

E|-----------------------------------------------------------------
B|-7-7-7-7-7-7-7-7-5-5-5-5-5-5-5-5-3-3-3-3-3-3-3-3-2-2-2-2-2-2-2-2-
G|-----------------------------------------------------------------
D|-----------------------------------------------------------------
A|-----------------------------------------------------------------
E|-----------------------------------------------------------------

Stave 2:

E|---------------------------------------------------------------------------------
B|---------------------------------------------------------------------------------
G|---------------------------------------------------------------------------------
D|---------------------------------------------------------------------------------
A|---------------------------------------------------------------------------------
E|-2-2-2-2-2-2-2-2-0-0-2-2-2-2-2-2-2-2-0-0-2-2-2-2-2-2-2-2-0-0-2-2-2-2-2-2-2-2-0-0-

Stave 3:

E|-------------------------------------------------------------------------------------------
B|-10-10-10-10-10-10-10-10-14-14-9-9-9-9-9-9-9-9-5-5-7-7-7-7-7-7-7-7-3-3-2-2-2-2-2-2-2-2-5-5-
G|-------------------------------------------------------------------------------------------
D|-------------------------------------------------------------------------------------------
A|-------------------------------------------------------------------------------------------
E|-------------------------------------------------------------------------------------------

Stave 4:

E|-------------------------------------------------------------------------------------------
B|-10-10-10-10-10-10-10-10-14-14-9-9-9-9-9-9-9-9-5-5-7-7-7-7-7-7-7-7-7-7-7-7-7-7-7-7-7-7-9-9-
G|-------------------------------------------------------------------------------------------
D|-------------------------------------------------------------------------------------------
A|-------------------------------------------------------------------------------------------
E|-------------------------------------------------------------------------------------------

Stave 5:

E|-------------------------------------------------------------------------------------------
B|-10-10-10-10-10-10-10-10-14-14-9-9-9-9-9-9-9-9-5-5-7-7-7-7-7-7-7-7-3-3-2-2-2-2-2-2-2-2-5-5-
G|-------------------------------------------------------------------------------------------
D|-------------------------------------------------------------------------------------------
A|-------------------------------------------------------------------------------------------
E|-------------------------------------------------------------------------------------------

Stave 6:

E|-------------------------------------------------------------------------------------------
B|-10-10-10-10-10-10-10-10-14-14-9-9-9-9-9-9-9-9-5-5-7-7-7-7-7-7-7-7-5-5-7-7-7-7-7-7-7-7-7-7-
G|-------------------------------------------------------------------------------------------
D|-------------------------------------------------------------------------------------------
A|-------------------------------------------------------------------------------------------
E|-------------------------------------------------------------------------------------------

Stave 7:

E|---------------------------------------------------------------------------------
B|---------------------------------------------------------------------------------
G|---------------------------------------------------------------------------------
D|---------------------------------------------------------------------------------
A|-------------------------------------------------------------------------4-----5-
E|-2-2-2-2-2-2-2-2-0-0-2-2-2-2-2-2-2-2-0-0-2-2-2-2-2-2-2-2-0-0-2-2-2-2-2-2---4-2---

Stave 8:

E|-----------------------------------------------------------------
B|-----------------------------------------------------------------
G|-----------------------------------------------------------------
D|-----------------------------------------------------------------
A|-4-4-4-4-0-0-0-0-4-4-4-4-4-----5-0-0-0-0-8-8-8-8-0-0-0-0-4-----5-
E|---------------------------4-2-----------------------------4-2---

Stave 9:

E|-------------------------------------------------------------------------
B|-------------------------------------------------------------------------
G|-------------------------------------------------------------------------
D|-6-6-6-6-4-4-4-4-2-2-2-2-1-1-1-1-7-7-7-7-9-9-9-9-10-10-10-10-11-11-11-11-
A|-------------------------------------------------------------------------
E|-------------------------------------------------------------------------

Stave 10:

E|---------------------------------------------------------
B|---------------------------------------------------------
G|-6-6-6-6-6-6-6-6-6-6-6-6-6-6-6-6-------------------------
D|-6-6-6-6-6-6-6-6-6-6-6-6-6-6-6-6-2----2----2----2----2-2-
A|-4-4-4-4-4-4-4-4-4-4-4-4-4-4-4-4-2----2----2----2----2-2-
E|---------------------------------0----0----0----0----0-0-

Stave 11:

E|-----------------------------------------------------
B|-----------------------------------------------------
G|-4-4-4-4-4-4-4-4-4-4-4-4-4-4-4-4-2----2----2----2----
D|-4-4-4-4-4-4-4-4-4-4-4-4-4-4-4-4-2----2----2----2----
A|-2-2-2-2-2-2-2-2-2-2-2-2-2-2-2-2-0----0----0----0----
E|-----------------------------------------------------

Stave 12:

E|-----------------------------------------------------------------------------------------------------
B|-----------------------------------------------------------------------------------------------------
G|-----------------------------------------------------------------------------------------------------
D|-------------------------------------------------------------------------------------7-7-7-7-7-7-7-7-
A|-4-4-4-4-5-5-5-5-11-11-11-11-9-9-9-9-0-0-0-0-2-2-2-2-4-4-4-4-7-7-7-7-4-4-4-4-4-4-4-4-4-4-4-4-4-4-4-4-
E|-----------------------------------------------------------------------------------------------------

Stave 13:

E|-----------------------------------------21-21-21-21-16-16-16-16-16-16-16-16-17-17-17-17-
B|-14-14-14-14-9-9-9-9-9-9-9-9-10-10-10-10-------------------------------------------------
G|-----------------------------------------------------------------------------------------
D|-----------------------------------------------------------------------------------------
A|-----------------------------------------------------------------------------------------
E|-----------------------------------------------------------------------------------------

http://www.guitartabcreator.com
Guitar Tab Creator is intended to store guitar tab created through the tool. It currently does not support in-line text editing. Any text you place in here will be lost. If you need to comment on your tab, please use the "Tab Notes" section located below.