WW 295

01234567891011121314151617181920212223
E
B
G
D
A
E
B
0 1 2 3 4 5 6 7 8 9 10 11 12 13 14 15 16 17 18 19 20 21 22 23
(/) Slide Up  (\) Slide Down  (h) Hammer On  (p) Pull Off  (b) Bend (r) Release (v) Vibrato

Stave 1:

E|------------------------------------------------------------------------------------------------------------------
B|------------------------------------------------------------------------------------------------------------------
G|----------------------9-----------------------------9-------------------10-----------------------------10---------
D|--7--9--10--7--9--10-----10--9--7--9--10--7--9--10-----10--9--7--9--10------10--9--7--9--10--7--9--10------10--9--
A|------------------------------------------------------------------------------------------------------------------
E|------------------------------------------------------------------------------------------------------------------

Stave 2:

E|-------------------------------------------------------------------_---------------------------------------------------
B|-------------------------------------------------------------------_---------------------------------------------------
G|----------------------11-----------------------------11------------_-----------------12--------------------------------
D|--7--9--10--7--9--10------10--9--7--9--10--7--9--10------10--9--9--10--12--9--10--12------12--10--9--10--12--9--10--12--
A|-------------------------------------------------------------------_---------------------------------------------------
E|-------------------------------------------------------------------_---------------------------------------------------

Stave 3:

E|-------------------------------------------------------------------------------------------------------------
B|-------------------------------------------------------------------------------------------------------------
G|--12--------------------------------12-----------------------------------------------------------------------
D|------12--10--9--10--12--9--10--12------8--7--5--8--7--5-----5--7--8--7--5--8--7--5-----5--7--8--7--5--8--7--
A|----------------------------------------------------------5--------------------------5-----------------------
E|-------------------------------------------------------------------------------------------------------------

Stave 4:

E|---------------------------------------------------------------------------------------------------------
B|---------------------------------------------------------------------------------------------------------
G|---------------------------------------------------------------------------------------------------------
D|--5-----5--7--8--5--8--7--5-----5--7--8--7--5--8--7--5-----5--10--8--7--10--8--7-----7--8--10--8--7--10--
A|-----6-----------------------6--------------------------7-------------------------8----------------------
E|---------------------------------------------------------------------------------------------------------

Stave 5:

E|---------------------------------------------------------------------
B|---------------------------------------------------------------------
G|---------------------------------------------------------------------
D|--8--7-----7--8--10--8--7--10--8--7-----7--8--10--8--7--10--8--7-----
A|--------8----------------------------8----------------------------8--
E|---------------------------------------------------------------------

							http://www.guitartabcreator.com
Chords

Instruments
{"strings":[[[".",".",".",".",".",".",".",".","_",".",".",".",".",".",".",".",".",".",".",".",".",".",".",".",".",".",".",".",".",".",".",".","."],[".",".",".",".",".",".",".",".","_",".",".",".",".",".",".",".",".",".",".",".",".",".",".",".",".",".",".",".",".",".",".",".","."],[".",".",".",".",".",".",9,".","_",".",".",".",".",".",".",9,".",".",".",".",".",10,".",".",".",".",".",".",".",".",10,".","."],[7,9,10,7,9,10,".",10,9,7,9,10,7,9,10,".",10,9,7,9,10,".",10,9,7,9,10,7,9,10,".",10,9],[".",".",".",".",".",".",".",".","_",".",".",".",".",".",".",".",".",".",".",".",".",".",".",".",".",".",".",".",".",".",".",".","."],[".",".",".",".",".",".",".",".","_",".",".",".",".",".",".",".",".",".",".",".",".",".",".",".",".",".",".",".",".",".",".",".","."]],[[".",".",".",".",".",".",".",".",".",".",".",".",".",".",".",".",".",".",".","_",".",".",".",".",".",".",".",".",".",".",".",".","."],[".",".",".",".",".",".",".",".",".",".",".",".",".",".",".",".",".",".",".","_",".",".",".",".",".",".",".",".",".",".",".",".","."],[".",".",".",".",".",".",11,".",".",".",".",".",".",".",".",11,".",".",".","_",".",".",".",".",12,".",".",".",".",".",".",".","."],[7,9,10,7,9,10,".",10,9,7,9,10,7,9,10,".",10,9,9,10,12,9,10,12,".",12,10,9,10,12,9,10,12],[".",".",".",".",".",".",".",".",".",".",".",".",".",".",".",".",".",".",".","_",".",".",".",".",".",".",".",".",".",".",".",".","."],[".",".",".",".",".",".",".",".",".",".",".",".",".",".",".",".",".",".",".","_",".",".",".",".",".",".",".",".",".",".",".",".","."]],[[".",".",".",".",".",".",".",".",".",".",".",".",".",".",".",".",".",".",".",".",".",".",".",".",".",".",".",".",".",".",".",".","."],[".",".",".",".",".",".",".",".",".",".",".",".",".",".",".",".",".",".",".",".",".",".",".",".",".",".",".",".",".",".",".",".","."],[12,".",".",".",".",".",".",".",".",12,".",".",".",".",".",".",".",".",".",".",".",".",".",".",".",".",".",".",".",".",".",".","."],[".",12,10,9,10,12,9,10,12,".",8,7,5,8,7,5,".",5,7,8,7,5,8,7,5,".",5,7,8,7,5,8,7],[".",".",".",".",".",".",".",".",".",".",".",".",".",".",".",".",5,".",".",".",".",".",".",".",".",5,".",".",".",".",".",".","."],[".",".",".",".",".",".",".",".",".",".",".",".",".",".",".",".",".",".",".",".",".",".",".",".",".",".",".",".",".",".",".",".","."]],[[".",".",".",".",".",".",".",".",".",".",".",".",".",".",".",".",".",".",".",".",".",".",".",".",".",".",".",".",".",".",".",".","."],[".",".",".",".",".",".",".",".",".",".",".",".",".",".",".",".",".",".",".",".",".",".",".",".",".",".",".",".",".",".",".",".","."],[".",".",".",".",".",".",".",".",".",".",".",".",".",".",".",".",".",".",".",".",".",".",".",".",".",".",".",".",".",".",".",".","."],[5,".",5,7,8,5,8,7,5,".",5,7,8,7,5,8,7,5,".",5,10,8,7,10,8,7,".",7,8,10,8,7,10],[".",6,".",".",".",".",".",".",".",6,".",".",".",".",".",".",".",".",7,".",".",".",".",".",".",".",8,".",".",".",".",".","."],[".",".",".",".",".",".",".",".",".",".",".",".",".",".",".",".",".",".",".",".",".",".",".",".",".",".",".",".",".",".",".",".","."]],[[".",".",".",".",".",".",".",".",".",".",".",".",".",".",".",".",".",".",".",".","."],[".",".",".",".",".",".",".",".",".",".",".",".",".",".",".",".",".",".",".",".","."],[".",".",".",".",".",".",".",".",".",".",".",".",".",".",".",".",".",".",".",".","."],[8,7,".",7,8,10,8,7,10,8,7,".",7,8,10,8,7,10,8,7,"."],[".",".",8,".",".",".",".",".",".",".",".",8,".",".",".",".",".",".",".",".",8],[".",".",".",".",".",".",".",".",".",".",".",".",".",".",".",".",".",".",".",".","."]]],"numberofstrings":6,"notes":["E","B","G","D","A","E","B"],"capo":0,"stringnotes":["E4","B3","G3","D3","A2","E2"],"comments":["Stave 1:","Stave 2:","Stave 3:","Stave 4:","Stave 5:"],"timing":[[null,"W",null,"W","W","W","W","W","W","W","W","W","W","W","W","W","W","W","W","W","W","W","W","W","W","W","W","W","W","W","W","W","W","W"],[null,"W","W","W","W","W","W","W","W","W","W","W","W","W","W","W","W","W","W",null,"W","W","W","W","W","W","W","W","W","W","W","W","W","W"],[null,"W","W","W","W","W","W","W","W","W",null,"W","W","W","W","W","W","W","W","W","W","W","W","W","W","W","W","W","W","W","W","W","W","W"],[null,"W","W","W","W","W","W","W","W","W","W","W","W","W","W","W","W","W","W","W","W","W","W","W","W","W","W","W","W","W","W","W","W","W"],[null,"W","W","W","W","W","W","W","W","W","W","W","W","W","W","W","W","W","W","W","W","W"]],"timingvisible":false,"tabcounter":21,"stave":4,"totalstaves":5,"instrument":"6guitar","selectedtuning":"6_standard","version":"13"}

Member for

2 years 3 months
Submitted by hesaidtoo on Fri, 2021-01-15 12:30