Arpeggios Alt Pick. v2

01234567891011121314151617181920212223
E
B
G
D
A
E
B
0 1 2 3 4 5 6 7 8 9 10 11 12 13 14 15 16 17 18 19 20 21 22 23
(/) Slide Up  (\) Slide Down  (h) Hammer On  (p) Pull Off  (b) Bend (r) Release (v) Vibrato

Stave 1:

E|--14--10--------------10--14--12--10--12--9-------------9--12--10--9--10--7-----------7--10--
B|----------12------12-------------------------10-----10-----------------------8-----8---------
G|--------------11---------------------------------9------------------------------7------------
D|---------------------------------------------------------------------------------------------
A|---------------------------------------------------------------------------------------------
E|---------------------------------------------------------------------------------------------

Stave 2:

E|--9--7--9--6-----------6--9--7--6--7--
B|--------------7-----7-----------------
G|-----------------6--------------------
D|--------------------------------------
A|--------------------------------------
E|--------------------------------------

							http://www.guitartabcreator.com
Chords

Instruments
{"strings":[[[14,10,".",".",".",10,14,12,10,12,9,".",".",".",9,12,10,9,10,7,".",".",".",7,10],[".",".",12,".",12,".",".",".",".",".",".",10,".",10,".",".",".",".",".",".",8,".",8,".","."],[".",".",".",11,".",".",".",".",".",".",".",".",9,".",".",".",".",".",".",".",".",7,".",".","."],[".",".",".",".",".",".",".",".",".",".",".",".",".",".",".",".",".",".",".",".",".",".",".",".","."],[".",".",".",".",".",".",".",".",".",".",".",".",".",".",".",".",".",".",".",".",".",".",".",".","."],[".",".",".",".",".",".",".",".",".",".",".",".",".",".",".",".",".",".",".",".",".",".",".",".","."]],[[9,7,9,6,".",".",".",6,9,7,6,7],[".",".",".",".",7,".",7,".",".",".",".","."],[".",".",".",".",".",6,".",".",".",".",".","."],[".",".",".",".",".",".",".",".",".",".",".","."],[".",".",".",".",".",".",".",".",".",".",".","."],[".",".",".",".",".",".",".",".",".",".",".","."]]],"numberofstrings":6,"notes":["E","B","G","D","A","E","B"],"capo":0,"stringnotes":["E4","B3","G3","D3","A2","E2"],"comments":["Stave 1:","Stave 2:"],"timing":[["W","W","W","W","W","W","W","W","W","W","W","W","W","W","W","W","W","W","W","W","W","W","W","W","W"],["W","W","W","W","W","W","W","W","W","W","W","W"]],"timingvisible":false,"tabcounter":12,"stave":1,"totalstaves":2,"instrument":"6guitar","selectedtuning":"6_standard","version":"13"}

Member for

2 years 2 months
Submitted by hesaidtoo on Mon, 2020-11-30 08:34