Arpeggios Alt Pick.

01234567891011121314151617181920212223
E
B
G
D
A
E
B
0 1 2 3 4 5 6 7 8 9 10 11 12 13 14 15 16 17 18 19 20 21 22 23
(/) Slide Up  (\) Slide Down  (h) Hammer On  (p) Pull Off  (b) Bend (r) Release (v) Vibrato

Stave 1:

E|-----------------8--12--10--7---------------------------5--8--7--4--------------
B|-------------10----------------8---------------------6--------------5-----------
G|----------9-----------------------7---------------5--------------------4--------
D|------10-----------------------------9---------7--------------------------6-----
A|--12------------------------------------10--8--------------------------------7--
E|--------------------------------------------------------------------------------

Stave 2:

E|----------------------------10--12--13--12--10-----------------------------------------------
B|------------------------10----------------------13--12--10--9--------------------------------
G|--------------7--9--10-----------------------------------------10--9-------------------------
D|-----------7----------------------------------------------------------12--10--9--------------
A|--5--7--8------------------------------------------------------------------------12--11--12--
E|---------------------------------------------------------------------------------------------

							http://www.guitartabcreator.com
Chords

Instruments
{"strings":[[[".",".",".",".",8,12,10,7,".",".",".",".",".",".",".",".",5,8,7,4,".",".",".","."],[".",".",".",10,".",".",".",".",8,".",".",".",".",".",".",6,".",".",".",".",5,".",".","."],[".",".",9,".",".",".",".",".",".",7,".",".",".",".",5,".",".",".",".",".",".",4,".","."],[".",10,".",".",".",".",".",".",".",".",9,".",".",7,".",".",".",".",".",".",".",".",6,"."],[12,".",".",".",".",".",".",".",".",".",".",10,8,".",".",".",".",".",".",".",".",".",".",7],[".",".",".",".",".",".",".",".",".",".",".",".",".",".",".",".",".",".",".",".",".",".",".","."]],[[".",".",".",".",".",".",".",".",10,12,13,12,10,".",".",".",".",".",".",".",".",".",".",".","."],[".",".",".",".",".",".",".",10,".",".",".",".",".",13,12,10,9,".",".",".",".",".",".",".","."],[".",".",".",".",7,9,10,".",".",".",".",".",".",".",".",".",".",10,9,".",".",".",".",".","."],[".",".",".",7,".",".",".",".",".",".",".",".",".",".",".",".",".",".",".",12,10,9,".",".","."],[5,7,8,".",".",".",".",".",".",".",".",".",".",".",".",".",".",".",".",".",".",".",12,11,12],[".",".",".",".",".",".",".",".",".",".",".",".",".",".",".",".",".",".",".",".",".",".",".",".","."]]],"numberofstrings":6,"notes":["E","B","G","D","A","E","B"],"capo":0,"stringnotes":["E4","B3","G3","D3","A2","E2"],"comments":["Stave 1:","Stave 2:"],"timing":[["W","W","W","W","W","W","W","W","W","W","W","W","W","W","W","W","W","W","W","W","W","W","W","W"],["W","W","W","W","W","W","W","W","W","W","W","W","W","W","W","W","W","W","W","W","W","W","W","W","W"]],"timingvisible":false,"tabcounter":25,"stave":1,"totalstaves":2,"instrument":"6guitar","selectedtuning":"6_standard","version":"13"}

Member for

2 years 2 months
Submitted by hesaidtoo on Mon, 2020-11-30 08:13