Sound will begin in 5 seconds

Life Seems Long Until You Blink - Lead 1

01234567891011121314151617181920212223
E
B
G
D
A
E
B
0 1 2 3 4 5 6 7 8 9 10 11 12 13 14 15 16 17 18 19 20 21 22 23
(/) Slide Up  (\) Slide Down  (h) Hammer On  (p) Pull Off  (b) Bend (r) Release (v) Vibrato

Stave 1:

E|----------------------------------------------------------------------
B|----------------------------------------------------------------------
G|--10---------12--10--------12--10-----10---------12--10--------12--10\
D|------10----------------------------------10--------------------------
A|----------------------------------------------------------------------
E|----------------------------------------------------------------------

Stave 2:

E|-----------------------------------------------------8------
B|--10--10--8--10--8\6--6-----------10--10--8--10--10-----10--
G|-------------------------7----------------------------------
D|------------------------------------------------------------
A|------------------------------------------------------------
E|------------------------------------------------------------

Stave 3:

E|--------------------------------------------------------8------
B|--10--10--8--10--8--8\6--6-----------10--10--8--10--10-----10--
G|----------------------------7----------------------------------
D|---------------------------------------------------------------
A|---------------------------------------------------------------
E|---------------------------------------------------------------

Stave 4:

E|-------------------------------------------------------
B|--10--10--8--10--8\6--6-----------8--10p8--6--8/10-----
G|-------------------------7--------------------------7--
D|-------------------------------------------------------
A|-------------------------------------------------------
E|-------------------------------------------------------

Stave 5:

E|------------------------
B|--8b10--8r6-----------6\
G|-------------7--5--7----
D|------------------------
A|------------------------
E|------------------------

Stave 6:

E|----------------------------------------------------------------------------
B|----------------------------------------------------------------------------
G|--12--12--14--12--10---------12--12--12--10-------------------------10------
D|----------------------12---------------------12-----10--10--10--12------12--
A|----------------------------------------------------------------------------
E|----------------------------------------------------------------------------

Stave 7:

E|----------------------------------------------------------------------------
B|----------------------------------------------------------------------------
G|--12--12--14--12--10---------12--12--12--10-------------------------10------
D|----------------------12---------------------12-----10--10--10--12------12--
A|----------------------------------------------------------------------------
E|----------------------------------------------------------------------------

Stave 8:

E|--------------------------------------------------
B|--------------------------------------------------
G|--------------10--12--12b14--12r10------12p10--10\
D|------10--12------------------------12------------
A|--12----------------------------------------------
E|--------------------------------------------------

Stave 9:

E|--------------------------------
B|--18--15--13--------18--15--13--
G|--------------------------------
D|--------------------------------
A|--------------------------------
E|--------------------------------

							http://www.guitartabcreator.com
Note:
Guitar Tab Creator is intended to store guitar tab created through the tool. It currently does not support in-line text editing. Any text you place in here will be lost. If you need to comment on your tab, please use the "Tab Notes" section located below.