Sound will begin in 5 seconds

Whiskey in the Jar, solo

Chords
01234567891011121314151617181920212223
E
B
G
D
A
E
B
0 1 2 3 4 5 6 7 8 9 10 11 12 13 14 15 16 17 18 19 20 21 22 23
Song Science #1: How Pros Use 6 Chords to Write Hit Songs
(/) Slide Up  (\) Slide Down  (h) Hammer On  (p) Pull Off  (b) Bend (r) Release (v) Vibrato

Stave 1:

E|--7--8--10--8--7h8p7------7-------------------7--8--8b10--7--10--12--12--10--12--14b15--12--10--12--
B|----------------------10-----10--8--7--8--10--------------------------------------------------------
G|----------------------------------------------------------------------------------------------------
D|----------------------------------------------------------------------------------------------------
A|----------------------------------------------------------------------------------------------------
E|----------------------------------------------------------------------------------------------------

Stave 2:

E|--10--12--7--10--8--7--5-----------8p7p5-----------------------------------
B|--------------------------8--6--5---------8--6--5--------------------------
G|---------------------------------------------------7--5--4--4b5--4b5--4b5--
D|---------------------------------------------------------------------------
A|---------------------------------------------------------------------------
E|---------------------------------------------------------------------------

Stave 3:

E|--7--8--10--8--7h8p7------7-------------------7--8--8b10--7--10--12--12--10--12--14b15--12--10--12--
B|----------------------10-----10--8--7--8--10--------------------------------------------------------
G|----------------------------------------------------------------------------------------------------
D|----------------------------------------------------------------------------------------------------
A|----------------------------------------------------------------------------------------------------
E|----------------------------------------------------------------------------------------------------

Stave 4:

E|--10--12--7--10--8--7--5-------------------7/8-----8/10-----10/12-----
B|--------------------------8--6--5--6/8--5-------8--------8---------8--
G|----------------------------------------------------------------------
D|----------------------------------------------------------------------
A|----------------------------------------------------------------------
E|----------------------------------------------------------------------

Stave 5:

E|--7-------8--7-----------------3--3----------------------------------------
B|--8-------8--8--10--8--10--12--3--3---------8--10--10b12--10b12--10--8-----
G|--7--7/9--9--7-----------------0--0-----/9------------------------------9--
D|----------------10--9--10--12-----5----------------------------------------
A|---------------------------------------------------------------------------
E|---------------------------------------------------------------------------

Stave 6:

E|-------------------------------------------------------------------------------------------10/12-----
B|-------8h10p8----------8h10p8-----------------------------------------------------8/10--8---------8--
G|--7h9----------9--7h9----------9--7--6--5-----5/7--5--7/9--7--9/10--9--10/12--10---------------------
D|-----------------------------------------------------------------------------------------------------
A|-----------------------------------------------------------------------------------------------------
E|-----------------------------------------------------------------------------------------------------

Stave 7:

E|--8-----8-------------------------------------------15--17b19r17p15------------15h17p15--
B|--8h10--8--------------13--15b17--15b17v-----15/17-------------------17p15h17------------
G|--------7h9------9/14--------------------------------------------------------------------
D|-------------10--------------------------------------------------------------------------
A|-----------------------------------------------------------------------------------------
E|-----------------------------------------------------------------------------------------

http://www.guitartabcreator.com
Guitar Tab Creator is intended to store guitar tab created through the tool. It currently does not support in-line text editing. Any text you place in here will be lost. If you need to comment on your tab, please use the "Tab Notes" section located below.