Sound will begin in 5 seconds

Minor blues solo

01234567891011121314151617181920212223
E
B
G
D
A
E
B
0 1 2 3 4 5 6 7 8 9 10 11 12 13 14 15 16 17 18 19 20 21 22 23
Song Science #1: How Pros Use 6 Chords to Write Hit Songs
(/) Slide Up  (\) Slide Down  (h) Hammer On  (p) Pull Off  (b) Bend (r) Release (v) Vibrato

Stave 1:

E|-----------------------------------------------------------------------------------------
B|-----6--8b10--8b10v-----8b10--8b10--6---------6------------------------------------------
G|--7------------------------------------7v--------7-----5---------------------------------
D|----------------------------------------------------7-----7--5------------------3--------
A|----------------------------------------------------------------8--5v--------3-----5-----
E|--------------------------------------------------------------------------5--------------

Stave 2:

E|--------------------------------------------------------------------------------
B|--------6--8b10--8v--------6--8b10--8b10--8v--------6---------------------------
G|-----5---------------7--7---------------------7--7-----7-----5-----------7v-----
D|--7-------------------------------------------------------7-----7--5------------
A|----------------------------------------------------------------------8---------
E|--------------------------------------------------------------------------------

Stave 3:

E|------8------8v--8------10b12--10--8--------------------------------------------------------
B|--10-----10---------10----------------10v--10--9--8-----8b10-----8--6-----------------------
G|-----------------------------------------------------------------------7-----5--------------
D|--------------------------------------------------------------------------------7--5--------
A|--------------------------------------------------------------------------------------8--5--
E|--------------------------------------------------------------------------------------------

Stave 4:

E|-----------------------8----------
B|-----6--8b10--6--8--------6b8-----
G|--7-------------------------------
D|----------------------------------
A|----------------------------------
E|----------------------------------

Stave 5:

E|-----------------------------------
B|--8--6--------6-----------------6--
G|--------7--------7-----5-----7-----
D|--------------------7--------------
A|-----------------------------------
E|-----------------------------------

Stave 6:

E|--------------------------------------
B|--8--6--------6-----------------------
G|--------7--------7-----5-----7--5-----
D|--------------------7--------------8--
A|--------------------------------------
E|--------------------------------------

http://www.guitartabcreator.com
Guitar Tab Creator is intended to store guitar tab created through the tool. It currently does not support in-line text editing. Any text you place in here will be lost. If you need to comment on your tab, please use the "Tab Notes" section located below.