Sound will begin in 5 seconds

Dark Days

01234567891011121314151617181920212223
E
B
G
D
A
E
B
0 1 2 3 4 5 6 7 8 9 10 11 12 13 14 15 16 17 18 19 20 21 22 23
Song Science #1: How Pros Use 6 Chords to Write Hit Songs
(/) Slide Up  (\) Slide Down  (h) Hammer On  (p) Pull Off  (b) Bend (r) Release (v) Vibrato

Stave 1:

E|-------------------------------------------------
B|-------------------------------------------------
G|-------------------------------------------------
D|-------------------------------------------------
A|-------------------------------------------------
D|-0-0--0-0-3-3-3-3-5-5-5---0-0--0-0-3-3-3-3-5-5-3-

Stave 2:

E|-----------------------
B|-----------------------
G|-----------------------
D|-----------------------
A|------5-------8--------
D|-0--------0------3-2-0-

Stave 3:

E|--------------------------------------
B|--------------------------------------
G|--------------------------------------
D|--------------------------------------
A|-----5-3-------8-7------5-3-----------
D|-0---------0--------0---------8-8-8-7-

Stave 4:

E|-------------------------------------------
B|-------------------------------------------
G|-------------------------------------------
D|-------------------------------------------
A|------5-0-3-3-3-0-3-5------5-0-3-3-3-0-8-7-
D|-0-0-------------------0-0-----------------

Stave 5:

E|--------------------------------------------------
B|--------------------------------------------------
G|--------------------------------------------------
D|--------------------------------------------------
A|---5\7-5------5\7-5---------5\7-5------5\7-5------
D|-0-------7--0-------7--8--0-------7--0-------7--5-

Stave 6:

E|---------------------------
B|---------------------------
G|---------------------------
D|---------------------------
A|---------------------------
D|-12/0-3-0-12/0-3-0-5-5-5-5-

Stave 7:

E|---------------------------
B|---------------------------
G|---------------------------
D|---------------------------
A|---------------------------
D|-12/0-3-0-12/0-3-0-2-2-2-2-

Stave 8:

E|---------------------
B|---------------------
G|---------------------
D|---------------------
A|---------------------
D|-3-3-3-3-3-3-2-2-2-2-

Stave 9:

E|----------------------------
B|----------------------------
G|----------------------------
D|----------------------------
A|----------------------------
D|-8-8-7-7-7-5-8-8-10-10-10\1-

Stave 10:

E|-----------------------------------------
B|-----------------------------------------
G|-----------------------------------------
D|-----------------------------------------
A|-----------------------------------------
D|-8-8-7-7-7-5-8-8-10-10-10---10--------10-

http://www.guitartabcreator.com
Guitar Tab Creator is intended to store guitar tab created through the tool. It currently does not support in-line text editing. Any text you place in here will be lost. If you need to comment on your tab, please use the "Tab Notes" section located below.