Sound will begin in 5 seconds

Beyond

01234567891011121314151617181920212223
E
B
G
D
A
E
B
0 1 2 3 4 5 6 7 8 9 10 11 12 13 14 15 16 17 18 19 20 21 22 23
Song Science #1: How Pros Use 6 Chords to Write Hit Songs
(/) Slide Up  (\) Slide Down  (h) Hammer On  (p) Pull Off  (b) Bend (r) Release (v) Vibrato

Stave 1:

E|----------------------------------------|---------------------------------------
B|----------------------------------------|---------------------------------------
G|----------------------------------------|---------------------------------------
D|----------------------------------------|---------------------------------------
A|-----5-------7\9--10--9--------------5--|-----5-------4-------------------------
E|--3-----3\5--------------10----5--7-----|--3-----3/2-----2\7--7--7--7--7--7--7--

Stave 2:

E|-------------------------------------------|---------------------------------------
B|-------------------------------------------|---------------------------------------
G|-------------------------------------------|---------------------------------------
D|-------------------------------------------|---------------------------------------
A|-----5-------7--7\9--10--9--------------5--|-----5-------4-------------------------
E|--3-----3\5-----------------10----5--7-----|--3-----3/2-----2\7--7--7--7--5--5--5--

Stave 3:

E|----------------------------------------|------------------------
B|----------------------------------------|------------------------
G|----------------------------------------|------------------------
D|----------------------------------------|------------------------
A|-----5-------7--7\9--10--------------5--|-----5-------4----------
E|--3-----3\5--------------10----5--7-----|--3-----3/2-----2----2--

Stave 4:

E|----------------------------|--------------------------
B|----------------------------|--------------------------
G|----------------------------|--------------------------
D|----------5\7----4\5--4-----|--------------------------
A|-----5-------------------5--|-------4--4\5--4----------
E|--3-------------------------|--2---------------5----7--

Stave 5:

E|------------------------------------------
B|------------------------------------------
G|------------------------------------------
D|------------------------------------------
A|------------------------------------------
E|--3----3--5----5\1----7--7--7--7--7----7--

Stave 6:

E|-------------------------------------------|---------------------------------------
B|-------------------------------------------|---------------------------------------
G|-------------------------------------------|---------------------------------------
D|-------------------------------------------|---------------------------------------
A|-----5-------7--7\9--10--9--------------5--|-----5-------4-------------------------
E|--3-----3\5-----------------10----5--7-----|--3-----3/2-----2\7--7--7--7--7--7--7--

Stave 7:

E|-------------------------------------------|----------------------------------------
B|-------------------------------------------|----------------------------------------
G|-------------------------------------------|----------------------------------------
D|-------------------------------------------|----------------------------------------
A|-----5-------7--7\9--10--9--------------5--|-----5--------4-------------------------
E|--3-----3\5-----------------10----5--7-----|--3-----3--2-----2\7--7--7--7--5--5--5--

Stave 8:

E|-------------------------------------------|-------------------------
B|-------------------------------------------|-------------------------
G|-------------------------------------------|-------------------------
D|-------------------------------------------|-----5-------------------
A|-----5-------7--7\9--10--9--------------5--|--------------4----------
E|--3-----3\5-----------------10----5--7-----|--3-----3--2-----2----7--

Stave 9:

E|--------------------------|----------------------------
B|--------------------------|----------------------------
G|--------------------------|----------------------------
D|----------5\7--4\5--4-----|----------------------------
A|-----5-----------------5--|-------4----4\5--4----------
E|--3-----------------------|--2-----------------5----7--

Stave 10:

E|----------------------------------------------
B|----------------------------------------------
G|----------------------------------------------
D|----------------------------------------------
A|----------------------------------------------
E|--3------3--5----5/1----7--7--7--7--7----7/1--

Stave 11:

E|-------------------------------------------|---------------------------------------
B|-------------------------------------------|---------------------------------------
G|-------------------------------------------|---------------------------------------
D|-------------------------------------------|---------------------------------------
A|-----5-------7--7\9--10--9--------------5--|-----5-------4-------------------------
E|--3-----3\5-----------------10----5--7-----|--3-----3/2-----2\7--7--7--7--7--7--7--

Stave 12:

E|-------------------------------------------|---------------------------------------
B|-------------------------------------------|---------------------------------------
G|-------------------------------------------|---------------------------------------
D|-------------------------------------------|---------------------------------------
A|-----5-------7--7\9--10--9--------------5--|-----5-------4-------------------------
E|--3-----3\5-----------------10----5--7-----|--3-----3/2-----2\7--7--7--7--5--5--5--

Stave 13:

E|-----
B|-----
G|-----
D|-----
A|-----
E|-----

Stave 14:

E|-------------------------------------------|---------------------------------------
B|-------------------------------------------|---------------------------------------
G|-------------------------------------------|---------------------------------------
D|-------------------------------------------|---------------------------------------
A|-----5-------7--7\9--10--9--------------5--|-----5-------4-------------------------
E|--3-----3\5-----------------10----5--7-----|--3-----3/2-----2\7--7--7--7--7--7--7--

Stave 15:

E|-------------------|--
B|-------------------|--
G|-------------------|--
D|-------------------|--
A|--------5----------|--
E|--3--5-------7--7--|--

Stave 16:

E|-----------------------------|-------------------------------
B|-----------------------------|-------------------------------
G|-----------------------------|-------------------------------
D|-----------------------------|-------------------------------
A|--7--7----7--7---------------|--7--7----7--10----------------
E|------------------5--5--5\1--|-----------------7--5--5--5/1--

Stave 17:

E|----------------------------------|----------------
B|----------------------------------|----------------
G|----------------------------------|----------------
D|------------------7---------------|----------------
A|--5--5----5--5---------6--6--6/1--|----------------
E|----------------------------------|--3--3----3--3--

Stave 18:

E|--------------------------------|-----------------------|--
B|--------------------------------|-----------------------|--
G|--------------------------------|-----------------------|--
D|-----------10--12--10--9--------|----------7\9--7-------|--
A|-------10-----------------10----|-------6----------9----|--
E|--8-----------------------------|--7--------------------|--

Stave 19:

E|-------------------------------|---------------------
B|-------------------------------|---------------------
G|-------------------------------|---------------------
D|-----------10\12--10--9--------|----------7\9--7-----
A|-------10----------------10----|-------6----------9--
E|--8----------------------------|--7------------------

Stave 20:

E|---------------
B|---------------
G|---------------
D|---------------
A|---------------
E|--7----7----7--

Stave 21:

E|--------------------------|----------------------------
B|--------------------------|----------------------------
G|--------------------------|----------------------------
D|--------------------------|----------------------------
A|---------5------7------7--|------------------7------7--
E|--8-----------------------|--8--------7----------------

http://www.guitartabcreator.com
Guitar Tab Creator is intended to store guitar tab created through the tool. It currently does not support in-line text editing. Any text you place in here will be lost. If you need to comment on your tab, please use the "Tab Notes" section located below.