Hark the Herald Angels - Meredith Andrews

Chords

01234567891011121314151617181920212223
E
B
G
D
A
E
B
0 1 2 3 4 5 6 7 8 9 10 11 12 13 14 15 16 17 18 19 20 21 22 23
(/) Slide Up  (\) Slide Down  (h) Hammer On  (p) Pull Off  (b) Bend (r) Release (v) Vibrato

Intro and verse:  Special tuning: B => C

E|--------0-----------0-----------0-----------0-----------0-----------0----------0-----------0-----
C|-----------0-----------0-----------0-----------0-----------0----------------------0-----------0--
G|-----0-----------0-----------2-----------2-----------2-----------0----------4-----------5--------
D|--5-----------5-----------4-----------4-----------3-----------2--------2/6-----------7-----------
A|-------------------------------------------------------------------------------------------------
E|-------------------------------------------------------------------------------------------------

Verse mid section::

E|--------8-----------8-----------8------------10-----------8-----------8-----------8------------10-----
C|-----------0-----------0-----0-----0-------------0-----------0-----------0-----0-----0-------------0--
G|-----0------------------------------------0------------0------------------------------------0---------
D|-----------------7--------7----------------------------------------7--------7-------------------------
A|--7-----------8-----------------------10------------7-----------8-----------------------10------------
E|------------------------------------------------------------------------------------------------------

Verse end:

E|-----------------------------------------------------------3-----------3-----------------------------
C|---------9---------9------7--------5--------5-----4-----------2-----------0--9---11----------12------
G|------------10-----10-----9-----------7-----7-----5-----0-----------0--------10--12--------------14--
D|-----10------------10-----9-----7-----------7-----5--------------------------10--12------14----------
A|--8-------------8------7-----5-----------5-----3-----2-----------3-----------8---10--12--------------
E|-----------------------------------------------------------------------------------------------------

Verse end (repeat):

E|-----------------------------------------------------------3-----------3-------------
C|---------9---------9------7--------5--------5-----4-----------2-----------0--9---11--
G|------------10-----10-----9-----------7-----7-----5-----0-----------0--------10--12--
D|-----10------------10-----9-----7-----------7-----5--------------------------10--12--
A|--8-------------8------7-----5-----------5-----3-----2-----------3-----------8---10--
E|-------------------------------------------------------------------------------------

Interlude:

E|-----1-0--1-0---------------1-0--1-0---------------1-0--1-0---------------1-0--1-0------------------
C|-----2-0--2-0---------------2-0--2-0---------------2-0--2-0---------------2-0--2-0------------------
G|---------------0h2--2p0---------------0h2--2p0---------------0h2--2p0---------------0h2--2h0--------
D|----------------------------------------------------------------------------------------------------
A|--3----------------------3----------------------3----------------------3----------------------------
E|----------------------------------------------------------------------------------------------------

							http://www.guitartabcreator.com
Tab Notes

Special tuning: B -> C

Instruments
{"title":"Hark the Herald Angels - Meredith Andrews","strings":[[[".",".",0,".",".",".",0,".",".",".",0,".",".",".",0,".",".",".",0,".",".",".",0,".",".",".",".",0,".",".",".",0,"."],[".",".",".",0,".",".",".",0,".",".",".",0,".",".",".",0,".",".",".",0,".",".",".",".",".",".",".",".",0,".",".",".",0],[".",0,".",".",".",0,".",".",".",2,".",".",".",2,".",".",".",2,".",".",".",0,".",".",".",".",4,".",".",".",5,".","."],[5,".",".",".",5,".",".",".",4,".",".",".",4,".",".",".",3,".",".",".",2,".",".",2,"/",6,".",".",".",7,".",".","."],[".",".",".",".",".",".",".",".",".",".",".",".",".",".",".",".",".",".",".",".",".",".",".",".",".",".",".",".",".",".",".",".","."],[".",".",".",".",".",".",".",".",".",".",".",".",".",".",".",".",".",".",".",".",".",".",".",".",".",".",".",".",".",".",".",".","."]],[[".",".",8,".",".",".",8,".",".",".",8,".",".",".",10,".",".",".",8,".",".",".",8,".",".",".",8,".",".",".",10,"."],[".",".",".",0,".",".",".",0,".",0,".",0,".",".",".",0,".",".",".",0,".",".",".",0,".",0,".",0,".",".",".",0],[".",0,".",".",".",".",".",".",".",".",".",".",".",0,".",".",".",0,".",".",".",".",".",".",".",".",".",".",".",0,".","."],[".",".",".",".",".",7,".",".",7,".",".",".",".",".",".",".",".",".",".",".",".",7,".",".",7,".",".",".",".",".",".","."],[7,".",".",".",8,".",".",".",".",".",".",".",10,".",".",".",7,".",".",".",8,".",".",".",".",".",".",".",10,".",".","."],[".",".",".",".",".",".",".",".",".",".",".",".",".",".",".",".",".",".",".",".",".",".",".",".",".",".",".",".",".",".",".","."]],[[".",".",".",".",".",".",".",".",".",".",".",".",".",".",".",".",".",".",3,".",".",".",3,".",".",".",".",".",".","."],[".",".",9,".",".",9,".",7,".",".",5,".",".",5,".",4,".",".",".",2,".",".",".",0,9,11,".",".",12,"."],[".",".",".",10,".",10,".",9,".",".",".",7,".",7,".",5,".",0,".",".",".",0,".",".",10,12,".",".",".",14],[".",10,".",".",".",10,".",9,".",7,".",".",".",7,".",5,".",".",".",".",".",".",".",".",10,12,".",14,".","."],[8,".",".",".",8,".",7,".",5,".",".",".",5,".",3,".",2,".",".",".",3,".",".",".",8,10,12,".",".","."],[".",".",".",".",".",".",".",".",".",".",".",".",".",".",".",".",".",".",".",".",".",".",".",".",".",".",".",".",".","."]],[[".",".",".",".",".",".",".",".",".",".",".",".",".",".",".",".",".",".",3,".",".",".",3,".",".","."],[".",".",9,".",".",9,".",7,".",".",5,".",".",5,".",4,".",".",".",2,".",".",".",0,9,11],[".",".",".",10,".",10,".",9,".",".",".",7,".",7,".",5,".",0,".",".",".",0,".",".",10,12],[".",10,".",".",".",10,".",9,".",7,".",".",".",7,".",5,".",".",".",".",".",".",".",".",10,12],[8,".",".",".",8,".",7,".",5,".",".",".",5,".",3,".",2,".",".",".",3,".",".",".",8,10],[".",".",".",".",".",".",".",".",".",".",".",".",".",".",".",".",".",".",".",".",".",".",".",".",".","."]],[[".",1,"p",0,1,"p",0,".",".",".",".",".",".",".",1,"p",0,1,"p",0,".",".",".",".",".",".",".",1,"p",0,1,"p",0,".",".",".",".",".",".",".",1,"p",0,1,"p",0,".",".",".",".",".",".",".","."],[".",2,"p",0,2,"p",0,".",".",".",".",".",".",".",2,"p",0,2,"p",0,".",".",".",".",".",".",".",2,"p",0,2,"p",0,".",".",".",".",".",".",".",2,"p",0,2,"p",0,".",".",".",".",".",".",".","."],[".",".",".",".",".",".",".",0,"h",2,2,"p",0,".",".",".",".",".",".",".",0,"h",2,2,"p",0,".",".",".",".",".",".",".",0,"h",2,2,"p",0,".",".",".",".",".",".",".",0,"h",2,2,"h",0,".","."],[".",".",".",".",".",".",".",".",".",".",".",".",".",".",".",".",".",".",".",".",".",".",".",".",".",".",".",".",".",".",".",".",".",".",".",".",".",".",".",".",".",".",".",".",".",".",".",".",".",".",".",".",".","."],[3,".",".",".",".",".",".",".",".",".",".",".",".",3,".",".",".",".",".",".",".",".",".",".",".",".",3,".",".",".",".",".",".",".",".",".",".",".",".",3,".",".",".",".",".",".",".",".",".",".",".",".",".","."],[".",".",".",".",".",".",".",".",".",".",".",".",".",".",".",".",".",".",".",".",".",".",".",".",".",".",".",".",".",".",".",".",".",".",".",".",".",".",".",".",".",".",".",".",".",".",".",".",".",".",".",".",".","."]]],"numberofstrings":6,"notes":["E","C","G","D","A","E"],"capo":0,"stringnotes":["E3","C3","G2","D2","A1","E1"],"comments":["Intro and verse: Special tuning: B => C","Verse mid section::","Verse end:","Verse end (repeat):","Interlude:"],"timing":[["W","W","W","W","W","W","W","W","W","W","W","W","W","W","W","W","W","W","W","W","W","W","W","W","W","W","W","W","W","W","W","W","W","W"],["W","W","W","W","W","W","W","W","W","W","W","W","W","W","W","W","W","W","W","W","W","W","W","W","W","W","W","W","W","W","W","W","W"],["W","W","W","W","W","W","W","W","W","W","W","W","W","W","W","W","W","W","W","W","W","W","W","W","W","W","W","W","W","W","W"],[null,null,null,null,null,null,null,null,null,null,null,null,null,null,null,null,null,null,null,null,null,null,null,null,null,null,"W"],["W","W","W","W","W","W","W","W","W","W","W","W",null,"W"]],"timingvisible":false,"tabcounter":54,"stave":4,"totalstaves":5,"instrument":"6guitar","selectedtuning":"6_standard","version":"13"}

Member for

10 months 3 weeks
Submitted by henningjp on Sat, 2019-11-30 07:46