Sound will begin in 5 seconds

Rude Speed Ska

Chords
01234567891011121314151617181920212223
E
B
G
D
A
E
B
0 1 2 3 4 5 6 7 8 9 10 11 12 13 14 15 16 17 18 19 20 21 22 23
Song Science #1: How Pros Use 6 Chords to Write Hit Songs
(/) Slide Up  (\) Slide Down  (h) Hammer On  (p) Pull Off  (b) Bend (r) Release (v) Vibrato

Stave 1:

E|-----------------------------------|--
B|-----------------------------------|--
G|-----------------------------------|--
D|-----------------------------------|--
A|--0--5--6--7-----7--7--6--7--6--7--|--
E|-----------------------------------|--

Stave 2:

E|--5--10--5--10--5--10-----9---7--|--
B|--5--11--5--11--5--11-----10--9--|--
G|--6--11--6--11--6--11-----11--9--|--
D|---------------------------------|--
A|---------------------------------|--
E|---------------------------------|--

Stave 3:

E|--5-----5-----5-----5--6--7--
B|--7-----5-----7-----7--8--9--
G|--7-----6-----7-----7--8--9--
D|--7-----7-----7-----7--8--9--
A|--5-----7-----5-----5--6--7--
E|--5-----5-----5-----5--6--7--

Stave 4:

E|-----------------------------------------------
B|-----------------------------------------------
G|-----------------------------------------------
D|--7--7--7-----5--5--5-----3--3--3-----2--5--6--
A|--7--7--7-----5--5--5-----3--3--3-----2--5--6--
E|--5--5--5-----3--3--3-----1--1--1-----0--3--4--

http://www.guitartabcreator.com
Guitar Tab Creator is intended to store guitar tab created through the tool. It currently does not support in-line text editing. Any text you place in here will be lost. If you need to comment on your tab, please use the "Tab Notes" section located below.