Sound will begin in 5 seconds

Gringo

Chords
01234567891011121314151617181920212223
E
B
G
D
A
E
B
0 1 2 3 4 5 6 7 8 9 10 11 12 13 14 15 16 17 18 19 20 21 22 23
Song Science #1: How Pros Use 6 Chords to Write Hit Songs
(/) Slide Up  (\) Slide Down  (h) Hammer On  (p) Pull Off  (b) Bend (r) Release (v) Vibrato

Stave 1:

E|-----------------------------------------------------------------------------
B|-----------------------------------------------------------------------------
G|----------9------------------------------------------------------------------
D|--12--12-----12--12------------12------10--------15--15--15--15--17--15--14--
A|---------------------12------------12----------------------------------------
E|-----------------------------------------------------------------------------

Stave 2:

E|---------------------------------------------------------------------------------------------
B|---------------------------------------------------------------------------------------------
G|---------------------------------------------------------------------------------------------
D|-----7--5-----5-----------7--5-----8-----------7--5-----5-----------10--10--10--8--10--8--7--
A|--5--------8-----------5--------8-----------5--------8-----5---------------------------------
E|---------------------------------------------------------------------------------------------

Stave 3:

E|-----------------------------------------------------------------------------------------
B|-----------------------------------------------------------------------------------------
G|-----------------------------------------------------------------------------------------
D|-----7--5-----5--------------7--5-----8--------10--10--10--8--8--8--7--7--7--5--5--5-----
A|--5--------8-----5--------5--------8--------------------------------------------------5--
E|-----------------------------------------------------------------------------------------

Stave 4:

E|--5-----3-----5-----6--------5-----3-----3-----2--
B|--6-----3-----6-----6--------6-----3-----4-----3--
G|--7-----4-----7-----7--------7-----4-----3-----2--
D|--------------------------------------------------
A|--------------------------------------------------
E|--------------------------------------------------

Stave 5:

E|--5-----3-----5-----6--------8------6-----5--3-----3--
B|--6-----3-----6-----6--------10-----8-----7--5-----3--
G|--7-----4-----7-----7--------10-----8-----7--5-----4--
D|------------------------------------------------------
A|------------------------------------------------------
E|------------------------------------------------------

Stave 6:

E|--7-----8--|--7--
B|--8-----8--|--7--
G|--9-----9--|--8--
D|-----------|-----
A|-----------|-----
E|-----------|-----

Stave 7:

E|--5-----3-----5-----6-----5-----3-----3-----2--
B|--6-----3-----6-----6-----6-----3-----4-----3--
G|--7-----4-----7-----7-----7-----4-----3-----2--
D|-----------------------------------------------
A|-----------------------------------------------
E|-----------------------------------------------

Stave 8:

E|--5-----3-----6-----5--------6-----5--
B|--6-----3-----6-----6--------8-----7--
G|--7-----4-----7-----7--------8-----7--
D|--------------------------------------
A|--------------------------------------
E|--------------------------------------

Stave 9:

E|--5-----1-----3-----5-----|--
B|--6-----1-----3-----5-----|--
G|--7-----2-----4-----6-----|--
D|--------------------------|--
A|--------------------------|--
E|--------------------------|--

http://www.guitartabcreator.com
Guitar Tab Creator is intended to store guitar tab created through the tool. It currently does not support in-line text editing. Any text you place in here will be lost. If you need to comment on your tab, please use the "Tab Notes" section located below.